#4
standard 1/2 Step down

Chords:
Asus2: x02200
E: 022100
Bsus4: x24400
Dbm7: x46600
Abm7#5: 4x4400
D6/9: x57700


Intro:
e|--------------0-------------------------------0---------------------|
B|-----------------0------0------------------------0-----------------|
G|--------2--------------------------------2--------------------------|
D|-2--2---------------2--------2----2-----------------2--------------|
A|-0----------------------------0-----------------------0--------------|
E|-----------------------------------------------------------------------|

e|---------------0-----------0---------------0--------------------|
B|-------------------0-------0-------------------0------0--------|
G|----------4----------------------------4-------------------------|
D|--4---4---------------4--------4--4-------------4---------------|
A|--2-----------------------------2----------------------------------|
E|-------------------------------------------------------------------|

Verse:
Asus2 Bsus4 (2)
Dbm7 Asus2 Bsus4 (2)

Chorus:
E Bsus4 Asus2 (2)
E Bsus2 Abm7#5 Asus2 Bsus4 Dbm7 D6/9 Asus2
(E Bsus4)

Solo:E Bsus4 Asus2 (2)

final without you: Asus2 E Bsus4 Dbm7-Bsus4....
#6
you mean with the ridiculous solo part?
bc i'd love to have that tab haha
its ipmossible to find a tab for that solo