#2
link?
Quote by Moggan13
Serjem is like a Bishops testicals: Swollen
ಠ_ಠ
IIIIfb * KARKOLI * ytIIII(mostly rock... a little funky, a little hard just the way you want it )
#3
Which awesome cover of Parallel Universe?

Epiphone Les Paul Standard w/ SD Alnico Pro II's
Fender Aerodyne Telecaster & Stratocaster
Marshall JCM 800 4104 combo


E-Married to Funny_Page
#6
there are some minor variations but these are the chords:

DACGCD with CAPO on 3rd fret


verse
D|---0--------0-------0---0------0---------|
C|---0--------0-------0---0------0---------|
G|---3--------2-------2---2------0---------| (2)
C|---0--------0-------0---0------0---------|
A|---5--------3-------3---3------1---------|
D|---5--------3-------0---3------1---------|


chorus
D|----0------0---------0----0----------|
C|----0------0---------0----0-----------|
G|----3------0---------0----0-----------| (2)
C|----0------0---------0----0------------|
A|----5------8---------0----1------------|
D|----5------8---------0----1------------|

solo:
D|---0-----0-------0----0--------0----0-------0-----0-----------|
C|---0-----0-------0----0--------0----0-------0-----0------------|
G|---3-----3-------0----0--------3----3-------0-----0-------------| (2)
C|---0-----0-------0----0--------0----0-------0-----0--------------|
A|---5-----5-------1----3--------5----5-------1/----8--------------|
D|---5-----0-------1----3--------5----0-------1/----8---------------|

last chords :
D|---0-----0------0----0-----0----------|
C|---0-----0------0----0-----0---------|
G|---0-----0------0----0-----0----------|
C|---0-----0------0----0-----0------------|
A|---1-----3------1----3-----1-------------|
D|---1-----3------1----3-----1---------------|