#1
I got a squire for x-mas. It works good for me as long as I am sitting in front of a computer screen. I'm a Machine Head freak.

I need the bad ass riff from the end of "Alans on fire". Just the rhythm. I can get close by ear, but I suck at that. I want to get it right.

The original is here:
http://video.google.com/videosearch?q=stinger+missile&hl=en&emb=0&aq=0&oq=stinger+#q=alans%20on%20fire%20&hl=en&emb=0

I'd even give somebody $20 for a good gp tab.
#3
I might be able to do a regular tab or power tab. How much for those?

and where does that part start? I figure your talking about 3:30 or a little before.
Save a trip to the RT!
Quote by blake1221
If there's anything to take away from this thread, anything at all, it's to always cup the balls.


Top trolling abilities.

Quote by caeser1156
God dammit you had me 10/10
Last edited by guitarmaniac88 at Jan 18, 2009,
#4
As long as I can get that rythm section at the it is good.
I have something like 00110011 ... 77 .. 99
there are much more notes in there.
GO
#5
Dropped D tuning would be nice. E-mail at bob _at_ rhinoequipment _dot_ com. I'll mail the $20. Really.

Thanks
#6
I've had a long day, and I'm tired, but I'm out of school tomorrow, I check back then hopefully with the tab.
Save a trip to the RT!
Quote by blake1221
If there's anything to take away from this thread, anything at all, it's to always cup the balls.


Top trolling abilities.

Quote by caeser1156
God dammit you had me 10/10
#7
Quote by bob_co
Dropped D tuning would be nice. E-mail at bob _at_ rhinoequipment _dot_ com. I'll mail the $20. Really.

Thanks


Make it 40 to cover the cost of me buying the tab.
Black then white are all I see,
in my infancy, red and yellow then came to be.
#8
Where do I buy the tab?
40 better get me the whole thing in gp5.
I just want the tail end of the song.
I'm in.
#9
I sent you the tab in a message yesterday.
Save a trip to the RT!
Quote by blake1221
If there's anything to take away from this thread, anything at all, it's to always cup the balls.


Top trolling abilities.

Quote by caeser1156
God dammit you had me 10/10
#10
Quote by guitarmaniac88
I sent you the tab in a message yesterday.



Oh well.
Black then white are all I see,
in my infancy, red and yellow then came to be.
#11
Quote by guitarmaniac88
I sent you the tab in a message yesterday.

Thats very nice of you, or is that very mercenary of you

Anyways, let us know if you get paid.
#12
Quote by Free
Thats very nice of you, or is that very mercenary of you

Anyways, let us know if you get paid.



I told him I didn't want the $20. I have other reasons,
though.
Save a trip to the RT!
Quote by blake1221
If there's anything to take away from this thread, anything at all, it's to always cup the balls.


Top trolling abilities.

Quote by caeser1156
God dammit you had me 10/10
#13
I did not get a private message here or at the e-mail address. I checked the spelling in the post, and it is correct.
#14
Quote by bob_co
I did not get a private message here or at the e-mail address. I checked the spelling in the post, and it is correct.



I know I gave it to you. Let me check my sent and tracking messages.
Save a trip to the RT!
Quote by blake1221
If there's anything to take away from this thread, anything at all, it's to always cup the balls.


Top trolling abilities.

Quote by caeser1156
God dammit you had me 10/10
#15
I just sent it to you again.
Save a trip to the RT!
Quote by blake1221
If there's anything to take away from this thread, anything at all, it's to always cup the balls.


Top trolling abilities.

Quote by caeser1156
God dammit you had me 10/10
#16
Quote by guitarmaniac88
I told him I didn't want the $20. I have other reasons,
though.

Fair play. Nice to see there are still some good guys around.
#17
Well, nothing came in my in box that looked like a guitar tab today. It's not in any spam filters either. Maybe you could try bob_co at cox dot net.
Last edited by bob_co at Jan 21, 2009,
#18
Yay!! Got it. Thanks!!
I'm wasting time at work sticking it into GP.
#19
I posted yours and mine.

Thanks for steering me in the right direction. It took me almost 4 hours to do this, and it still might be a little off.

Any comments?

Improvements?

I think that I learned a ton from doing this.
Last edited by bob_co at Jan 22, 2009,
#20
Yours

Track 1
W
C||-------------------|-------------------|
B||-------------------|-------------------|
G||-------------------|-------------------|
D||-------------------|-------------------|
A||-------------------|-------------------|
D||-------------------|-------------------|


E S S S E E S S
---------------------|
---------------------|
---------------------|
-----------3---------|
-----------3---------|
--0--0-0-0-3--0--0-0-|


S E E E E E E E
-------------------------|
-------------------------|
-------------------------|
----6-----7--------------|
----6-----7--------------|
--0-6--0--7--0--0--0--0--|


E E E E E E E E
--------------------------|
--------------------------|
--------------------------|
--3--------------6-----7--|
--3--------------6-----7--|
--3--0--0--0--0--6--0--7--|


E E E E E E E E
--------------------------||
--------------------------||
-----------5--5--5--5--5--||
--7--7--7--5--5--5--5--5--||
--7--7--7--3--3--3--3--3--||
--7--7--7-----------------||


Duration Legend
---------------
W - whole
H - half
Q - quarter
E - 8th
S - 16th
T - 32nd
X - 64th
. - note dotted
|-n-| - n-tuplets
#21
Mine:

Track 1
W
C||-------------------|
B||-------------------|
G||-------------------|
D||-------------------|
A||-------------------|
D||-------------------|


E E E S S E E E E
---------------------------|
---------------------------|
---------------------------|
--0--0--2--0-1----------0--|
--0--0--2--0-1-0--1-----0--|
--0--0--2--0-1-0--1-----0--|


E E S S E E E E E
---------------------------|
---------------------------|
---------------------------|
--0--2--0-1----------0--0--|
--0--2--0-1-0--1-----0--0--|
--0--2--0-1-0--1-----0--0--|


E S S E E E E E E
---------------------------|
---------------------------|
---------------------------|
--2--0-1----------7--7--7--|
--2--0-1-0--1-----7--7--7--|
--2--0-1-0--1-----7--7--7--|


E E E E E E E E
--------------------------|
--------------------------|
--------------------------|
--5--5--5--5--5-----0--0--|
--5--5--5--5--5-----0--0--|
--5--5--5--5--5-----0--0--|


E S S E E E E E E
---------------------------|
---------------------------|
---------------------------|
--2--0-1----------0--0--2--|
--2--0-1-0--1-----0--0--2--|
--2--0-1-0--1-----0--0--2--|


S S E E E E E E S S
----------------------------|
----------------------------|
#22
This is mine:

Track 1
W
C||-------------------|
B||-------------------|
G||-------------------|
D||-------------------|
A||-------------------|
D||-------------------|


E E E S S E E E E
---------------------------|
---------------------------|
---------------------------|
--0--0--2--0-1----------0--|
--0--0--2--0-1-0--1-----0--|
--0--0--2--0-1-0--1-----0--|


E E S S E E E E E
---------------------------|
---------------------------|
---------------------------|
--0--2--0-1----------0--0--|
--0--2--0-1-0--1-----0--0--|
--0--2--0-1-0--1-----0--0--|


E S S E E E E E E
---------------------------|
---------------------------|
---------------------------|
--2--0-1----------7--7--7--|
--2--0-1-0--1-----7--7--7--|
--2--0-1-0--1-----7--7--7--|


E E E E E E E E
--------------------------|
--------------------------|
--------------------------|
--5--5--5--5--5-----0--0--|
--5--5--5--5--5-----0--0--|
--5--5--5--5--5-----0--0--|


E S S E E E E E E
---------------------------|
---------------------------|
---------------------------|
--2--0-1----------0--0--2--|
--2--0-1-0--1-----0--0--2--|
--2--0-1-0--1-----0--0--2--|


S S E E E E E E S S
----------------------------|
----------------------------|
----------------------------|
--0-1----------0--0--2--0-1-|
--0-1-0--1-----0--0--2--0-1-|
--0-1-0--1-----0--0--2--0-1-|