#1
Hey hey guys,

Just wondering if anyone could help me find/figure out the tabs for one of my favourite Angus and Julia's song, "What you Wanted".

=] Thanks!

Erica.
#3
Most of the song is similiar to this, but the bass guitar is changing the bass notes over these two phrases, so it seems more complicated.

G
----------------
--------3-------
--4---4---4---4-
----5-------5---
----------------
3---------------


Bm/F#
----------------
--------3-------
--4---4---4---4-
----4-------4---
----------------
2---------------