#2
e---------10h11p10----------------10h13p10-------------
b------11-------------11---------11-------------11-----------
g---12-------------------12---12-------------------12------
Last edited by Quantonyne at Jan 20, 2009,
#3
I do something a little different than this, all though I stay in the same position the whole time...

e-----------------11--16p11--------------------
b------------12----------------12--------------
g---11h13----------------------------13--------

I repeat this over and over, using a metronome of course
#5
Damnit he beat me to it i saw the thread name and was thinkin f that exact arpeggio! dethklok rules! \m/ Sweeps it properly please!
#6
Quote by Life Is Brutal
I preffer this one.

-17p13------------------13h17---
-----------15-------15--------------
----------------14------------------- 26nps FTW!

Exact arpeggio I learned first. Dethklok.
Quote by MooshMooshMarc
I didnt have anything planned out, and I didn't know **** about improvising, so it was like "OH SHI- SOLO TIME" so I kerry-kinged it.
#7
--------------11h14p11---------------------
----------12---------------12----------
-11h14-----------------------14-----------

very easy to begin with, harmonic minor scale. patern can be used at frets 2, 5, 8, 11, 14 etc might have the change your ringfinger around a bit(the one on the B string)
Wise Man Says: The guitar is obviously female, she's got hips, breasts... and a hole.
UG's Flamenco Club
Last edited by FretboardToAsh at Jan 21, 2009,