#1
Is anyone out there willing to tab out the intro to Profitable Killcount for me? I want to learn it ridiculously bad, but I can't read the guitar pro on here and I can't find another tab. Email it to me if you can tab it out at skate_alaska1@hotmail.com, thanks.
#2
 Q=210
 4/4
  Gtr I
|---------------------------------|----------------------------------|
|---------------------------------|----------------------------------|
|-2-2-2-2----------------5-5-5-5--|-4-4-4-4--------------------------|
|---------2-2-2-2-----------------|-------------------------0-0-0-0--|
|-----------------3-3-3-3---------|-----------------2-2-2-2----------|
|---------------------------------|---------4-4-4-4------------------|
|---------------------------------|----------------------------------|
|
| Gtr II
|---------------------------------|----------------------------------|
|---------------------------------|----------------------------------|
|---------------------------------|-------------------------1-1-1-1--|
|-2-2-2-2-------------------------|-6-6-6-6---------3-3-3-3----------|
|---------3-3-3-3---------7-7-7-7-|---------5-5-5-5------------------|
|-----------------5-5-5-5---------|----------------------------------|
|---------------------------------|----------------------------------|


|---------------------------------|-------------------------4-4-4-4-|
|---------------------------------|-----------------5-5-5-5---------|
|-----------------2-2-2-2-4-4-4-4-|---------5-5-5-5-----------------|
|---------2-2-2-2-----------------|-6-6-6-6-------------------------|
|-3-3-3-3-------------------------|---------------------------------|
|---------------------------------|---------------------------------|
|---------------------------------|---------------------------------|
|
|-----------------0-0-0-0---------|-----------------4-4-4-4-7-7-7-7-|
|---------1-1-1-1---------3-3-3-3-|---------6-6-6-6-----------------|
|-2-2-2-2-------------------------|-4-4-4-4-------------------------|
|---------------------------------|---------------------------------|
|---------------------------------|---------------------------------|
|---------------------------------|---------------------------------|
|---------------------------------|---------------------------------|


|---------------------------------|---------------------------------|
|-------------------------1-1-1-1-|-0-0-0-0-------------------------|
|-2-2-2-2-------------------------|---------------------------------|
|---------2-2-2-2-----------------|-------------------------0-0-0-0-|
|-----------------3-3-3-3---------|-----------------2-2-2-2---------|
|---------------------------------|---------4-4-4-4-----------------|
|---------------------------------|---------------------------------|
|
|---------------------------------|---------------------------------|
|---------------------------------|---------------------------------|
|---------------------------------|-------------------------1-1-1-1-|
|---------------------------------|-6-6-6-6---------3-3-3-3---------|
|-7-7-7-7-----------------7-7-7-7-|---------5-5-5-5-----------------|
|---------8-8-8-8-5-5-5-5---------|---------------------------------|
|---------------------------------|---------------------------------|


|---------------------------------|-------------------------4-4-4-4-|
|---------------------------------|-----------------5-5-5-5---------|
|-----------------2-2-2-2-4-4-4-4-|---------5-5-5-5-----------------|
|---------2-2-2-2-----------------|-6-6-6-6-------------------------|
|-3-3-3-3-------------------------|---------------------------------|
|---------------------------------|---------------------------------|
|---------------------------------|---------------------------------|
|
|-----------------0-0-0-0---------|-----------------4-4-4-4-7-7-7-7-|
|---------1-1-1-1---------3-3-3-3-|---------6-6-6-6-----------------|
|-2-2-2-2-------------------------|-4-4-4-4-------------------------|
|---------------------------------|---------------------------------|
|---------------------------------|---------------------------------|
|---------------------------------|---------------------------------|
|---------------------------------|---------------------------------|


taken from the guitar pro tab
Quote by Carmel
You are a redeeming feature for the UG Swedish population.


All-riiight.
Last edited by billybusa at Jan 21, 2009,