#1
Need help

The 2:55 minute of this video:

http://www.youtube.com/watch?v=_5lKiFcnUlM

The machine head video is here:

http://www.youtube.com/watch?v=kjIPLqOT65w

I just spent 4 hours to try to figure out the sound of this.

I got a guitar for x-mas (squire) and never played before.

I want to find that boom boom boom chick chick sound, and I found it in this riff.

My notes are not quite right.

And yes, I would hello kitty this thing out when I can rock with it.


Track 1
W
C||-------------------|
B||-------------------|
G||-------------------|
D||-------------------|
A||-------------------|
D||-------------------|


E E E S S E E E E
---------------------------|
---------------------------|
---------------------------|
--0--0--2--0-1----------0--|
--0--0--2--0-1-0--1-----0--|
--0--0--2--0-1-0--1-----0--|


E E S S E E E E E
---------------------------|
---------------------------|
---------------------------|
--0--2--0-1----------0--0--|
--0--2--0-1-0--1-----0--0--|
--0--2--0-1-0--1-----0--0--|


E S S E E E E E E
---------------------------|
---------------------------|
---------------------------|
--2--0-1----------7--7--7--|
--2--0-1-0--1-----7--7--7--|
--2--0-1-0--1-----7--7--7--|


E E E E E E E E
--------------------------|
--------------------------|
--------------------------|
--5--5--5--5--5-----0--0--|
--5--5--5--5--5-----0--0--|
--5--5--5--5--5-----0--0--|

E S S E E E E E E
---------------------------|
---------------------------|
---------------------------|
--2--0-1----------0--0--2--|
--2--0-1-0--1-----0--0--2--|
--2--0-1-0--1-----0--0--2--|


S S E E E E E E S S
----------------------------|
----------------------------|
----------------------------|
--0-1----------0--0--2--0-1-|
--0-1-0--1-----0--0--2--0-1-|
--0-1-0--1-----0--0--2--0-1-|
#2
why is your high note a C o.O

Please use tags for tabs....
#3
BTW,
I would give someone a buck or two for an Alan's on Fire GP tab to put on this site. The ones that I can find really suck.
#4
Quote by Camdon
why is your high note a C o.O

You are talking to a moron. My high note is a 7.
#5
BTW,
I have a GP tab that I made, and if anyone can tell me how to post it I will.
It sounds alot better than that tab.
#6
if you made this tab its crap... i thinl they play it in c# standard
the 1st
riff is
2 8 7
2 8 7
0 6 5
the is is based from this, main thing...