#1
i was messing around and figured something out. its an older song i think but I dont know what it is. Heres the tab

I dont know the timing but its moderately fast
E|-------------------------------------------------------------------------------|
B|-------------------------------------------------------------------------------|
G|-11---11---11---11---11---11---11---9---7---7---5---7---7---7-----|
D|--0----0-----0-----0----0-----0----0----0---0---0---0---0---0---0-----|
A|-------------------------------------------------------------------------------|
E|-------------------------------------------------------------------------------|

E|---------------------------------------------------------------------------------------------|
B|---------------------------------------------------------------------------------------------|
G|-11---11---11---11---11---11---11---14----7---7---7---9---11---9----7----5----|
D|--0----0-----0-----0----0-----0----0-----0-----0---0---0---0----0--- 0----0----0---|
A|---------------------------------------------------------------------------------------------|
E|---------------------------------------------------------------------------------------------|

E|------------------------------------------|
B|------------------------------------------|
G|--9----9----11----9-----7-----5-------| Repeat
D|--0----0-----0-----0----0-----0-------|
A|------------------------------------------|
E|------------------------------------------|