#1
I just got a new acoustic, a Gibson Maestro.
It's a beauty and classy.

Anyways. I wanted to learn some November Blessing. Cause I love love love him.

But there aren't really any tabs. Besides the intro to Haunt Me, and Storms I beleive.

I need:

Can I keep you?
Haunt Me (whole song)
Are you Watching Closely?
Great Romances of the Afterlife.


-------------

Already have...
Thank You Angel.
Baby, I need a Queen.


Please&Thanks
Last edited by shaunsuffocate. at Jan 27, 2009,
#2
Thank You Angel

Tuning: standard 1 step down

* strum

intro:

e|---0---0-----------0----0-----------0----0------------0---0-------------|
B|---0------0----0---0------0----0---0------0---0-----7--------7--------|
G|---0---------0-----0---------0------0--------0--------0-----------------| (4)
D|---2----------------4----------------5------------------5-----------------|
A|---3----------------5----------------7------------------7------------------|
E|-----------------------------------------------------------------------------|


........*.........*.......*........*..........................*........*.......*.......*........*.......*.......*
e|----0-------0------0------0---------------------0------0------0------0------0-----0------0--------|
B|----0-------0------0------7---------------------0------0------0------0------0-----0------0--------|
G|----0-------0------0------0-----2 times-------0------0------0------0------0-----0------0-------|
D|----2-------4------5------5---------------------9------7------10-----9------2-----4-----7--------|
A|----3-------5------7------7---------------------10-----9-----12-----10-----3-----5-----7--------|
E|-----------------------------------------------------------------------------------------------0--------|


Verse:
........*.........*.......*.............................*........*.......*.......*........*.......*.......*
e|----0-------0------0-----------------------0------0------0------0------0-----0------0--------|
B|----0-------0------0-----------------------0------0------0------0------0-----0------0--------|
G|----0-------0------0-------2 times-------0------0------0------0------0-----0------0-------|
D|----2-------4------5-----------------------9------7------10-----9------2-----4-----2--------|
A|----3-------5------7-----------------------10-----9-----12-----10-----3-----5-----0--------|
E|---------------------------------------------------------------------------------------------------|

........*.......*
e|----0------0-----0---------|
B|----0------0-----0---------|
G|----0------0-----0---------|
D|----4------5-----7---------|
A|----2------3-----5---------|
E|-----------------------------|


Chorus:
.......*.......*......*
e|----0-----0-----0------------|
B|----0-----0-----0------------|
G|----0-----0-----0------------| (2)
D|----2-----4-----5------------|
A|----3-----5-----7------------|
E|-------------------------------|


(pre verse
........*.........*.......*........*..........................*........*.......*.......*........*.......*.......*
e|----0-------0------0------0---------------------0------0------0------0------0-----0------0--------|
B|----0-------0------0------7---------------------0------0------0------0------0-----0------0--------|
G|----0-------0------0------0-----2 times-------0------0------0------0------0-----0------0-------|
D|----2-------4------5------5---------------------9------7------10-----9------2-----4-----7--------|
A|----3-------5------7------7---------------------10-----9-----12-----10-----3-----5-----7--------|
E|-----------------------------------------------------------------------------------------------0--------|

Verse...chorus...

.......*.......*......*
e|----0-----0-----0-----0-------|
B|----0-----0-----0-----0-------|
G|----0-----0-----0-----0-------| (4)
D|----2-----4-----5-----4-------|
A|----3-----5-----7-----5-------|
E|-------------------------------|

........*.........*.......*.............................*........*.......*.......*........*.......*.......*
e|----0-------0------0-----------------------0------0------0------0------0-----0------0--------|
B|----0-------0------0-----------------------0------0------0------0------0-----0------0--------|
G|----0-------0------0-------2 times-------0------0------0------0------0-----0------0-------|
D|----2-------4------5-----------------------9------7------10-----9------2-----4-----2--------|
A|----3-------5------7-----------------------10-----9-----12-----10-----3-----5-----0--------|
E|---------------------------------------------------------------------------------------------------|

........*.......*
e|----0------0-----0---------|
B|----0------0-----0---------|
G|----0------0-----0---------|
D|----4------5-----7---------|
A|----2------3-----5---------|
E|-----------------------------|

chorus....

......*.......*.......*
e|--0------0------0-----0---------|
B|--0------0------0-----0---------|
G|--0------0------0-----0---------|
D|--2------4------5-----7---------|
A|--0-------2------3----5---------|
E|-----------------------------------|


outro:
e|---0---0-----------0----0-----------0----0------------0---0------0-------|
B|---0------0----0---0------0----0---0------0---0-----0------0---0-----|
G|---0---------0-----0---------0------0--------0--------0----------0-------|
D|---2----------------4----------------5------------------4----------2-------|
A|---3----------------5----------------7------------------5----------3--------|
E|-----------------------------------------------------------------------------|
#3
Be My Queen

tuning: standard


intro:
e|----------------3--------0----------0----------0---------------------------------------------------------|
B|-------------------3--------0----------0----------0---------------------0--------------------------------|
G|----------0--------------------------------------------------------0--------0------------------0----------|
D|-------2-----------------------2-----------2----------2-------4----4--------4---------2--------0-----0-|
A|----3-------------------------------------------------------2-------------------------2----2---------0----|
E|-----------------------------------------------------------------------------------0------------------------|

e|----------------3--------0----------0----------0---------------------------------------------------------|
B|-------------------3--------0----------0----------0---------------------0--------------------------------|
G|----------0--------------------------------------------------------0--------0------------------0----------|
D|-------2-----------------------2-----------2----------2-------4----4--------4---------2----------------|
A|----3-------------------------------------------------------2-------------------------2-------------------|
E|-----------------------------------------------------------------------------------0------------------------|


the next chords are played over and over, sometimes the last two are not, and the outro is exactly like the intro....
e|----3-----0-------0---0------0----3------------|
B|----3-----0-------0---0------0----3------------|
G|----0-----0-------0---0------0----0------------|
D|----2-----2-------4---2------4----2------------|
A|----3-----3-------2---2------2----2------------|
E|------------------------0-----------0------------|