#1
I am going to a campfire and i am looking for "Shake it (acoustic version)" by Metro Station. There is one up but i see in videos of theirs that they use bar chords and i was wondering if someone could tab it using chords
#2
They're not playing barre chords, it's all power chords....

I tabbed it from the youtube video "Metro Station perform "Shake It" live at Cheers in Canton"...I tabbed the 2 guitars, although one of them stops playing sometimes...you might want to play the first guitar only...

well, I realized that you want simpler chords, so replace the power chords with these...

A instead of 577
Bm-----------799
D-------------101212
G--------------355

INTRO:

1st guitar:
e|---------------------------------------------------------------------------|
B|---------------------------------------------------------------------------|
G|---------------------------------------------------------------------------| (2)
D|--7--7----9----12--12-----5----5---5-----12---12-------------------|
A|--7--7----9----12--12-----5----5---5-----12---12-------------------|
E|--5--5----7----10--10-----3----3---3-----10---10-------------------|

2nd guitar:
e|-------------------------------------------------------|
B|-------------------------------------------------------|
G|----7x7xx7x7--77-----7x7xx7x7--77------------| (2)
D|-------------------------------------------------------|
A|----5x5xx5x5--55-----5x5xx5x5--55------------|
E|--------------------------------------------------------|



VERSE:


1st guitar
e|-----------------------------------------------------------------------------------------|
B|-----------------------------------------------------------------------------------------|
G|------------------------------------------------------------------------------------------| (3)
D|----77777777----9999---12121212-----5555555----7-7-7--9--9--5--------|
A|----77777777----9999---12121212-----5555555--------------------------------|
E|----55555555----7777---10101010-----3333333--------------------------------|
PM.........................................................................

He plays a 4th time but instead of (355xxx)and the little riff he plays (xxxxxx)


CHORUS:

1st guitar
e|----------------------------------------------------------------------------------|
B|----------------------------------------------------------------------------------|
G|----------------------------------------------------------------------------------|
D|----77777777----9999---12121212-----5555555555555555--------| (2)
A|----77777777----9999---12121212-----5555555555555555--------|
E|----55555555----7777---10101010-----3333333333333333--------|

2nd guitar
e|---------------------------------------------------------------------------|
B|--77777777777777777777777777777777777-----------------|
G|---------------------------------------------------------------------------|
D|--55555555555555555555555555555555555-----------------|
A|---------------------------------------------------------------------------|


1st guitar
e|---------------------------------------------------------------------------|
B|---------------------------------------------------------------------------|
G|---------------------------------------------------------------------------| (2)
D|--7--7----9----12--12-----5----5---5-----12---12-------------------|
A|--7--7----9----12--12-----5----5---5-----12---12-------------------|
E|--5--5----7----10--10-----3----3---3-----10---10-------------------|


verse, chorus..


Bridge:

1st guitar
e|------------------------------------|
B|------------------------------------|
G|------------------------------------| (2)
D|----7----9-----5----12-----------|
A|----7----9-----5----12------------|
E|----5----7-----3----10------------|


..chorus..
Last edited by crmrz at Jan 27, 2009,