#1
the one on UG is kinda off(so disrespect intended to the guy who tabbed it), can anyone tab it alittle better
Roses are red
Voilets are blue
The only bulge in my pocket is my wallet
No i'm not happy to see you
#2
Rev Theory - Voices
(Randy Orton Theme Version)

basic chords/tabs by origamo6

here are basic chords so you can jam along
with the song or develop it further if you wish.

guitar: standard tuning

|[intro]
|----------------|----------------|----------------|
|----------------|----------------|----------------|
|8---------------|----------------|----------------|
|8---------------|--------------10|----------------|
|6---------------|--------------10|----------------|
|----------------|--------------8-|----------------|
I hear voices in my head, they council me they understand


... |[verse]
... |------------|----------------|
... |------------|----------------|
... |------------|----------------|
... |-5-----5----|5-----5-------3-|
... |-5-----5----|5-----5-------3-|
... |-3-----3----|3-----3-------1-|
They talk to me .. (strum this along through verse/build)


|[chorus]
|----------------|----------------|----------------|
|----------------|----------------|----------------|
|8---------------|----------------|----------------|
|8---------------|--------------10|----------------|
|6---------------|--------------10|----------------|
|----------------|--------------8-|----------------|
I hear voices in my head, they council me they understand


|
|----------------|----------------|----------------|
|----------------|----------------|----------------|
|----------------|----------------|----------------|
|-----5----------|----------------|3---------------|
|-----5----------|----------------|3---------------|
|-----3----------|----------------|1---------------|
They talk to me ............. They talk to me


That's about it, you have enough chords above to jam the whole song.
I noticed that the chords are like the chords from 'School' by Nirvana.
Last edited by -jembo- at Feb 17, 2009,