#1
this is the best way to play sweet home alabama and the easiest tab to read


Intro
D(Major) G(Major) C(Major)
-----------I-----------------------------------------I----------------
-------3---I--------3-----------3--------------------I---------3------
----------2I-----------2-----------0-----------------I------------2---
-0--0------I--------------------------------0h2p0----I---0--0---------
-----------I--3--3--------2-2---------0h2p0--------3-I---------------3
-----------I-----------------------------------------I----------------


D C G
Big wheels keep on turning
D C G
Carry me home to see my kin
D C G
Singing songs about the Southland
D C G
I miss Alabamy once again

D C G
And I think its a sin, yes

D C G
Well I heard mister Young sing about her
D C G
Well, I heard ole Neil put her down
D C G
Well, I hope Neil Young will remember
D C G
A Southern man don't need him around anyhow

D C G
Sweet home Alabama
D C G
Where the skies are so blue
D C G
Sweet Home Alabama
D C G
Lord, I'm coming home to you

D C G
In Birmingham they love the governor
D C G
Now we all did what we could do
D C G
Now Watergate does not bother me
D C G
Does your conscience bother you?
D C G
Tell the truth

D C G
Sweet home Alabama
D C G
Where the skies are so blue
D C G
Sweet Home Alabama
D C G
Lord, I'm coming home to you
D C G
Here I come Alabama
D C G
Now Muscle Shoals has got the Swappers

D C G
And they've been known to pick a song or two
D C G
Lord they get me off so much
D C G
They pick me up when I'm feeling blue
D C G
Now how about you?

D C G
Sweet home Alabama
D C G
Where the skies are so blue
D C G
Sweet Home Alabama
D C G
Lord, I'm coming home to you

D C G
Sweet home Alabama
D C G
Oh sweet home baby
D C G
Where the skies are so blue
D C G
And the governor's true
D C G
Sweet Home Alabama
D
Lordy
D C G
Lord, I'm coming home to you

Solo

E-17b-15-14---------10~-10-10-10----8---------------------------------
B--------------15---------------10----11-10-8-10----8-8-10--10b12-3/5--
G------------------------------------------------9---------9-----------
D----------------------------------------------------------------------
A----------------------------------------------------------------------
E----------------------------------------------------------------------


e--5b7----------3-5---3--5b6b5--3--3--------3----------------------
B-------3--4--5-----5----------------5/3/5-----3-------------------
G------------------------------------------------4h5p4-------------
D------------------------------------------------------5-0--0bd0---
A------------------------------------------------------------------
E---------------------------------------------------------------