#3
The only Guitar Pro tab for this song doesn't have any guitar chords, unfortunately.
#4
Chordfind was no help either. I mean, what the duece is a Ab7/Gb? I'd assume that it's a barred Ab7 with a Gb bass string but that seems fairly impossible to do and I'd just like to find some assurances of the fingerings for that chord and the many other weird ones in this tab.
#5
here i think i got em all, didn't want to do this takes too long but ok.

F
-----1-------------------
-----1-------------------
-----2-------------------
-----3-------------------
-----3-------------------
-----1-------------------

Am
-------------------------
-----1-------------------
-----2-------------------
-----2-------------------
-------------------------
-------------------------

D7
-----2-------------------
-----1-------------------
-----2-------------------
-------------------------
-------------------------
-------------------------

C7
-------------------------
-----1-------------------
-----3-------------------
-----2-------------------
-----3-------------------
-----0-------------------

Eb
-----1-------------------
-----1-------------------
-----3-------------------
-----4-------------------
-----3-------------------
-------------------------

Bbm
-----1-------------------
-----2-------------------
-----3-------------------
-----3-------------------
-----1-------------------
-----0-------------------

Gm
-----3-------------------
-----6-------------------
-----6-------------------
-----3-------------------
-----3-------------------
-----3-------------------
#6
Thanks for trying man but I know all those chords. It's the weird slash chords I can't get.
#7
Quote by Neesh1010
Thanks for trying man but I know all those chords. It's the weird slash chords I can't get.


Try asking in Musician's Talk. They know a bunch about chords.