#1
this has been bugging me for a while, pretty sure i didnt make it up. I know its something by Opeth but I cant put my finger on it.
Help please

Track 1
Q Q Q Q Q Q Q Q Q Q Q Q
E||----------------------|--0-------------------|-------0--------------|
B||-----------------0----|----------------------|--0-------------------|
G||------------8---------|-----------------8----|----------------------|
D||-------6--------------|------------6---------|-----------------5----|
A||--4-------------------|-------4--------------|------------3---------|
E||----------------------|----------------------|----------------------|


Q Q Q Q Q Q Q Q
------------0---------|-----------------0----||
-------0--------------|------------0---------||
--7-------------------|-------7--------------||
----------------------|--5-------------------||
-----------------3----|----------------------||
----------------------|----------------------||
#4
We don't just post threads here for every random thought that comes into our heads...
I would say post this in the Opeth thread, but you've already been told that it isn't Opeth.
Rec thread I guess?

edit: No, I'm stupid. I have no idea where to post this. We have that tab game.... I dunno...
Quote by severed-metal

You're losing interest because you're simply not gay enough. Which leads me to believe you aren't cut out for metal.
Last edited by Rhyan_EG at Feb 5, 2009,