#1
Hello to all my name is tal and I am new. There is an advertisement of NESTEA
with guitarist. When that the cowboy arrives the guitarist plays Kantri like this in short I searches the tabs of this. Please you will help me. You will try to write the tabs if you can this there will be nice.

This is the advertisement of NESTEA.
http://www.youtube.com/watch?v=EZNzAwoJmkM

Thank you to all.
#3
what's the song he starts playing at 00:06?
Quote by Carmel
You are a redeeming feature for the UG Swedish population.


All-riiight.
#4
Same thing i think he takes the c chord shape down a two whole steps and puts a reggae feel to it.
Peace be thy journey
#7
e|-------0-0-0----------0-0------0-0------2-2-2-2---2----2-2-2-2-----------------------------0----|
B|-------1-1-1----------1-1------1-1------3-3-3-3---3----3-3-3-3-----------------------------0----|
G|-------2-2-2----------0-0------0-0------2-2-2-2---0h2-2-2-2-2-----------------------------1----|
D|-------2-2-2----------2-2---2--------0----------------------------------------------------------2----|
A|--0------------2--3--------------------------------------------------------------------------------2----|
E|-----------------------------------------------------------------------------0-0-0---3b--3b--0--------|


on the 2nd part, it's two guitars playing..


1st guitar
e|----------------------------0-------------------5--5-55-55---44-44-5-------------------|
B|---3v--1----------0-1-------3--------------------------------------------------------------|
G|-----------0--2------------------2-----------------------------------------------------------|
D|----------------------------------------------------------------------------------------------|
A|----------------------------------------------------------------------------------------------|
E|---------------------------------------------------------------------------------------------|


2nd guitar
e|-------0-0-0----------0-0---------0-0------2-2-2-2--------1-1-1-1------------------0---0----0----|
B|-------1-1-1----------1-1---------1-1------3-3-3-3--------1-1-1-1------------------1---0----1----|
G|-------2-2-2----------0-0---------0-0------2-2-2-2--------2-2-2-2-------(strum)--2---1----2----|
D|-------2-2-2----------2-2----0h2-------0-------------------3-3-3-3------------------2---2----2-----|
A|--0------------2--3--------------------------------------------3-3-3-3------------------0---2----0----|
E|-----------------------------------------------------------1------------------------------------0----------|
Last edited by crmrz at Feb 15, 2009,