#1
If anyone could me tab this, it would be extremely helpful.
I have the beginning down but otherwise i can't hear what else is going on, i haven't developed my "musical ear" enough to tell.

I've been very interested in covering this song because i like singing along.
Please take the time to get back to me if you can spare some


myspace.com/matmusto
or google the actress and i by mat musto
Last edited by nolanacoustic at Feb 9, 2009,
#2
mmm..if you've got the intro it would've been easier to tab the rest...anyway,here it goes..

strum when you see (*)
Intro:
e|----0-----0-----0-----0-----0------0----0----0-----0----------|
B|----1-----1-----1-----1-----1------1----1----1-----1----------|
G|----0-----0-----0-----0-----0------0----0----0-----0----------| (2)
D|----2-----0-----2-----0h2--2------3----2----0-----2----------|
A|----0-----2-----3-----3-----3------------------------3----------|
E|--------------------------------------------------------------------|
-------*-----*-----*-------------------*----*-----*----*

Verse:
e|----0------0------0------0-------0------0-----0------0-----0-----0--------|
B|----1------1------1------1-------1------1-----1------1-----1-----1--------|
G|----0------2------0------2-------0------0-----2------0-----0-----2--------| (2)
D|----2------3------2------3-------2------0-----3------2-----0-----3--------|
A|----3--------------3--------------0------2-------------0-----2---------------|
E|--------------------------------------------------------------------------------|
-------*-----*--------*-----*-------*------*----*-------*-----*-----*


And then the ooh oohh is like the intro...

verse, ooh ohh..


last verse

e|----0------0------0------0-------0------0-----0------0-----0-----0--------0--0-----|
B|----1------1------1------1-------1------1-----1------1-----1-----1--------1--1-----|
G|----0------2------0------2-------0------0-----0------0-----0-----2--------2--0-----|
D|----2------3------2------3-------2------0-----2------0-----2-----3--------3--2-----|
A|----3--------------3--------------0------2-----3---------------------------------3-----|
E|-------------------------------------------------------------------------------------------|
-------*------*------*------*-------*------*-----*-------*-----*----*--------*
Last edited by crmrz at Feb 10, 2009,