#1
alright so i was challenged by my guitar teacher to tab out that circus music that they play all the time.

here is what i have so far

 e|-------10-9-8h9h8-7-8-7-6-5-6-5-4h5p4-3-4 3-2-1-------------------------------------------------------|
B|---------------------------------------------------------------------------|
G|---------------------------------------------------------------------------|
D|---------------------------------------------------------------------------|
A|---------------------------------------------------------------------------|
E|---------------------------------------------------------------------------|
i can't figure out the rest. if someone could help me that would be awesome

i think the rest is like this
e|----0-0-5-0-0-0-6-0-0-0--------------------------------------------------------------|
B|---------------------------------------------------------------------------|
G|---------------------------------------------------------------------------|
D|---------------------------------------------------------------------------|
A|---------------------------------------------------------------------------|
E|---------------------------------------------------------------------------|


sorry if this sounds stupid but i really need help
#3
e|---10-9-8-9-8-7-6-5-4-5-----7-6--5-6-5-4-3-2-1-2---5--------------5--------------|
B|--------------------------------------------------------------------55-4-5--------55-4-5--|
G|-----------------------------------------------------------------------------------------------|
D|-----------------------------------------------------------------------------------------------|
A|-----------------------------------------------------------------------------------------------|
E|-----------------------------------------------------------------------------------------------|

e|---------------------------5-6-7---9--7--5------------------------------|
B|---------------6-7-8-9---------------------------------------------------|
G|---6-7-8-9---------------------------------------------------------------|
D|---------------------------------------------------------------------------|
A|---------------------------------------------------------------------------|
E|---------------------------------------------------------------------------|
Last edited by crmrz at Feb 9, 2009,