#1
Someone puts up a guitar tab; when someone gets it right they put up a guitar tab and it continues. You must only give what genere your music is in

Standard tune
Rock:
|------------------|
|-----0-1----------|
|--------------0-2-|
|--2---------------|
|0----------3------|
|----------1-------|
I'm Just a Box in a Cage
I'm Just a Box in a Cage
I'm Just a Box in a Cage
I'm Just a Box in a Cage
#4
Quote by ctb
It's Pikachu!


Goddamit! AAAAAAAAAAAAAAAAAAAA.....
01110111001101101
10101101000
0110010
0101
01
0
******A Console Cowboy****** 1
01
0101
0110010
10101101000
01110111001101101
#5
---------------------------------------------------------------
---------------------------------------------------------------
--0---3---5----0----3---6-5------0---3---5----3----0--
--0---3---5----0----3---6-5------0---3---5----3----0--
---------------------------------------------------------------
---------------------------------------------------------------
#6
There's already a very similar game in musicians theory, i imagine anything similar would go there. look there, and ask those mods if you don't find it.

Closed

I@M A MOD RAHG
On vacation from modding = don't pm me with your pish