#1
So I found out two of my friends like to rap and have made some home recorded CDs. We were talking and I brought up how I play guitar so it turned into what if I played something while they rapped. I thought this was a great idea so I stated playing some chord progressions and they rapped and everything went pretty good. We had to leave though so we agreed that I would learn some rap songs. I thought this would be easy but apparently not...any help? Also no RATM. They're more into like Tupac, D-12, Eminem, Dre, and such. Thanks much!
#2
lose yourself - eminem

----------------------|---------------------------
----------------------|---------------------------
------7---------7----|-----8---------8-8-8----
-7-7-7-7-7-7-7-7-|8-8-8-8-8-8-7-8-5-----
-5-5-5-5-5-5-5-5-|5-5-5-5-5-5-5-5-5-----
----------------------|---------------------------


california love - tupac

-------------------------------
-------------------------------
6/7-7-7-7-7-7--------------
6/7-7-7-7-7-7--------------
4/5-5-5-5-5-5--------------
------------------------------
My Deviantart

Great Minds Think Alike
Quote by Son.Of.TheViper
You sigged me, AND had an idea the same as mine!
I like you.

About my Lady Gaga/Pokemon parody
Quote by Mike50227
XD not bad

Quote by ExOblivione
You're my hero.

Quote by myevilside
I must say, i love it!