#1
ok so a friend is looking for the tab to this song, i couldnt find anything... so ive turned to my biggest resource lol

any help would be appreciated (even just the chords would help a lot)

Thanks
Quote by thundrstruk891
do EXACTLY what rock savior said.


EXACTLY.

Quote by SGKIDD
^^ X2,00,000,000,000,000,000,000,000,000,000,000,000,000,000,000,000

To me

Member of the 'Guitarists Born In 1991' Club. PM greendayguitar or blues_rocker to join.
#2
INTRO:

(acoustic guitar)
e|---------------------------------------------------------------------------|
B|---------------------------------------------------------------------------|
G|---------------------------------------------------------------------------|
D|---------7-------------5------/10-10-----5-----------------------------|
A|------5----5-------3-----3---/8---8------3-----------------------------|
E|---3------------3-------------/8---8------3------------------------------|

e|---------------------------------------------------------------------------|
B|---------------------------------------------------------------------------|
G|---------------------------------------------------------------------------|
D|---------7-------------5------/10--7-----5-----------------------------|
A|------5----5-------3-----3---/8---7------5-----------------------------|
E|---3------------3-------------/8---5------3------------------------------|


(electric guitar)
e|----------0------------0-------------0----------0------------------------|
B|-------3------------3----3-------1-----1----3----3---------------------|
G|----4--------4--5-------------2------------------------------------------|
D|---------------------------------------------------------------------------|
A|---------------------------------------------------------------------------|
E|---------------------------------------------------------------------------|

e|-----------0------------0----------------------------------------------------|
B|-------3-----3------3-----3----1/5/8--------------------------------------|
G|---4-------------5-----------------------------------------------------------|
D|------------------------------------------------------------------------------|
A|-------------------------------------------------------------------------------|
E|-------------------------------------------------------------------------------|

verse is pretty much like the intro (2 times)

Chorus:
------G----F-----C
e|---------------------------|
B|---------------------------|
G|---------------------------| (4)
D|----5----3----5----------|
A|----5----3----3----------|
E|----3----1----3----------|

VERSE....

AND THEN...
C G Bm (3) Em C

CHORUS...

GUITAR SOLO: (strum)
e|--2----3----3-----1----3------------|
B|--2----3----3-----1----3------------|
G|--3----5----0-----3----5------------|
D|--3----5----0-----3----5------------|
A|--1----3----2-----1----3------------|
E|-------------3-------------------------|


(I)
e|--------------------------------------------|
B|---------------------------------------------|
G|-----------------------------3---5----------| (3)
D|---------5--------------5---3---5----------|
A|--0--3------0--1p0---5---1---3-----------|
E|-------------------------3-------------------|

e|--------------------------------------------|
B|---------------------------------------------|
G|--------------------------------------------|
D|---------5--------------5---3---5----------|
A|--0--3------0--1p0---5---3---3-----------|
E|-------------------------3---1---3-----------|


C G Bm (2) Em C

play the last chorus adding the little riff from (I)....
#3
thanks a lot
Quote by thundrstruk891
do EXACTLY what rock savior said.


EXACTLY.

Quote by SGKIDD
^^ X2,00,000,000,000,000,000,000,000,000,000,000,000,000,000,000,000

To me

Member of the 'Guitarists Born In 1991' Club. PM greendayguitar or blues_rocker to join.