#2
i second this, even if its just for the cool bass bit
Gear:

Jackson RR-3 Eerie Desert Swirl
Alden Warlord Guitar+Bass
Encore Strat
KTone Alpine White 6/12 Double Neck SG
Digitech RP500
Kustom Amp KGA16R

And A Bunch Of Other Stuff
#3
If someone could just do the main riff that would be excellent. *I just realized I didn't specify*
Thanks.
#4
drop C tuning?

D|---------------------------------------------------------------------------|
A|---------------------------------------------------------------------------|
F|---------------------------------------------------------------------------|
C|---------------------------------------------------------------------------|
G|-------5~-3--------------------------------------------------------------|
C|---0-----------5--3--0---3---0--3b--0---------------------------------|
#5
Quote by crmrz
drop C tuning?

D|---------------------------------------------------------------------------|
A|---------------------------------------------------------------------------|
F|---------------------------------------------------------------------------|
C|---------------------------------------------------------------------------|
G|-------5~-3--------------------------------------------------------------|
C|---0-----------5--3--0---3---0--3b--0---------------------------------|



i think your close, but this worked better for me:

e|---------------------------------------------------------------------------|
B|---------------------------------------------------------------------------|
G|---------------------------------------------------------------------------|
D|---------------------------------------------------------------------------|
A|-------3/\-1--------------------------------------------------------------|
C|---0-----------5--3--0---3---0--3/\--0---------------------------------|


with /\ being the distortion pedal.
#6
Quote by crmrz
drop C tuning?

D|---------------------------------------------------------------------------|
A|---------------------------------------------------------------------------|
F|---------------------------------------------------------------------------|
C|---------------------------------------------------------------------------|
G|-------5~-3--------------------------------------------------------------|
C|---0-----------5--3--0---3---0--3b--0---------------------------------|


I think this is the right version, it certainly is the correct tuning, it's one Zakk uses alot.

I wanna learn itttt :P