#1
please make a bass line to go with this tab

E--3--3---3-3-3--5-5-5--7-7-7----2-2---------------------0-0--------------3-3-5--3--------------
B--3--3---3-3-3--5-5-5--7-7-7----3-3--3-----5--3-------1-1-1--------/5-------------5-----------
G--0--0-------------------------------2-2----2---------2-----0-0---0----------------------------------
D--0--0-------------------------------4-4------4----------4--2-2------2-------------------------------
A--2--2-------------------------------2-2----------------------------------------------------------------
E--3--3---------------------------------------------------------------------------------------------------


E-2-2--2---------------2------------
B-1-1-----1---------1-----1--------
G-2-2--------2---4-----------2-2--
D-------------------------------------
A-------------------------------------
E-------------------------------------


prettty please
#2
You start on G, try to do a G scale on the top four strings of your guitar, and transfering it to bass...
#5
Your key is C major the chord progression is G Bm C G Dm so play around with arrpegios of that within the bassline with a few passing tones here and there
Gear
Jekyll and Hyde
DD3 Delay
NS2 Noise gate
FAB chorus
Crybaby 535Q
HT-5 stack
1979 Gretsch BST 1000
Epiphone Les Paul Standard
Schecter Gryphon
Fender American Strat
Taylor T5 Custom
www.facebook.com/fadeoutproductions