#1
I have already looked at the tabs for this song listed on this site. However I am looking for a tab that coinsides exactly with the video of Dan playing it from one of those teaching videos. Here is a link to youtube of that video...

http://www.youtube.com/watch?v=8BU7LxcaCC4

The way the tabs are written and the way he plays the song are different at certain points. I am still a noob when it comes to playing guitar, and I"m not all that great. However I would like to learn this song, and would like to learn it the exact way he plays it. Any help would be greatly appreciated. Thanks, Paul Moore
#2
I haven't checked the tabs, so they probably have the solo, but the rest is here...

Drop C tuning (CGCFAD)


Intro
D|---------------------------------------------------------------------------------------------------|
A|----------------------------------------------------------------------------------------------------|
F|----------------------------------------------------------------------------------------------------|
C|----------------------------------------------------------------------------------------------------|
G|-----------------8-------7--------------------------------8-------7-------------------------------|
C|----10--7777-----77------7777--10-77-10--7777-----77-----77-10-7-8-7-8--10-777|etc

The verse is the same as intro but palm muted

Pre chorus
D|--------------------------------------------------------------------------------------------------xxxx-|
A|--------------------------------------------------------------------------------------------------xxxx-|
F|--------------------------------------------------------------------------------------------------xxxx-|
C|--------------------------------------------------------------------------------------------------xxxx-|
G|--------------------------------------------------------------------------------------------------xxxx-|
C|----333--000--555--222--333--000-555--222--333-000--555--222-333-000-5-xxxx-|


Chorus:
D|---------------------------------------------------------------------------|
A|---------------------------------------------------------------------------|
F|---------------------------------------------------------------------------|
C|---7-7----12---5--7---101010---7-7---12--5--7--5----------------|
G|---7-7----10---3--5----8-8-8-----7-7---10--3--5--3----------------|
C|---7-7-------------------------------7-7----------------------------------|

D|---------------------------------------------------------------------------------|
A|----------------------------------------------------------------------------------|
F|-----------------------------------------------------------------------------------|
C|---7-7----12---5--7---101010-9-9999999-----55555555-----------------|
G|---7-7----10---3--5----8-8-8---7-7777777-----55555555-----------------|
C|---7-7------------------------------------------------55555555------------------|

Bridge:
D|---------------------------------------------------------------------------|
A|---------------------------------------------------------------------------|
F|---------------------------------------------------------------------------|
C|-----------------------------------4444--4/5--3--3-33------------------|
G|-7777--777---11--22--11-2222--2/3--1--1-11---333-----------|
C|-7777--777---11--22--11-------------------------------333-----------|
Last edited by crmrz at Feb 13, 2009,
#3
Thank you so much, crmrz, you have been a big help. I have a hard time playing the intro cause it goes really fast, but hey, that's what practice is for. The main thing that I wanted to learn was the bridge to the solo. In the video you can plainly see him going up to the first and second frets with a slide but couldn't make it all out. The other tabs I have seen wanted you to play something like...

7777 7700 7877 9999 9108897800

All those down anywhere from the 7th to the 10th frets and I knew from the vid clip that it wasn't right. But once again thanks for that section I will be practicing later on tonight with it.