#2
Me2! Tried to find out self, but i cant find out the riff.. :/
The guitar is allways there!
#3
riff:
e|---------------------------------------------------------------------------|
B|---------------------------------------------------------------------------|
G|------------------------55555----666---------------------------------|
D|---8888----6666----55555----666----------------------------------|
A|---8888----6666----33333----444-----------------------------------|
E|---6666----4444--------------------------------------------------------|

1st solo chords:
e|---------------------------------------------------------------------------|
B|---------------------------------------------------------------------------|
G|---------------------------------------------------------------------------|
D|-----8------66----33----4444-----------------------------------------|(2)
A|-----8------66----33----4444------------------------------------------|
E|-----6------44----11----2222-------------------------------------------|

after 1st solo:
e|---------------------------------------------------------------------------|
B|---------------------------------------------------------------------------|
G|---3x33----5x55---6x66----8x8888---------------------------------| (2)
D|---3x33----5x55---6x66----8x8888---------------------------------|
A|---1x11----3x33---4x44----6x6666---------------------------------|
E|---------------------------------------------------------------------------|


last part:
e|----------|----------------------------------------------------------------------------------------------------|
B|----------|-----------------------------------------------------------------------------------------------------|
G|----------|-----55x55----66x66------------------------------------4times---111111111--12121212|
D|--8------|-----55x55-----66x66---66--x--88---x---55x55-----------------111111111--12121212|
A|--8------|-----33x33-----44x44---66--x--88---x---55x55-----------------9-9-9-9-9-9--10101010|
E|--6------|-----------------------------44--x--66---x---33x33----------------------------------------------|
Last edited by crmrz at Mar 26, 2009,