#1
Hey,

I know there are some amazing tabbers out there that could tab some of these songs in no time.

The acoustic artist's name is Pat Robitaille and I have been waiting for someone to hear him and create some of his tabs.

He is Canadian and I have seen him a few times at bars- Awesome voice and some sweet acoustic work.

Some songs I am looking for:

Wait A While : http://www.youtube.com/watch?v=dSYOelTWn1k

Found Blue Skies

Can You Feel Me ?

and anything else.


Not difficult songs just don't have the ear for them I guess.

Thanks a lot
mike
#2
I know is harder when you don't have the lyrics to go along with the chords, but this is an attempt to give you the chords right away...by the way some of his arrangements are too hard for my hands....


some chords:
G: 320033
Cadd9:x320033 (sometimes x3x033)
Am7: x02013
Dsus4/F#: 2x0233
Dadd4: x54035
G/B: x20033

Intro:
e|------------------------------------------------------------------------------------------|
B|------------------12--------------------12------------------10------------------------|
G|--------0---------------------0---------------------0--------------------0-------------|
D|------------12--------------------12-------------------12------------------12\-------|
A|---10------------------10---------------------9--------------------9------------------|
E|-----------------------------------------------------------------------------------------|


e|--------------------------------------------------|
B|------------------3-------------------3----------|
G|---------0-----------------0---------0-----------|
D|--------------------------------------x-----------|
A|-----3-------3--------3--------3----3-------------|
E|-----------------------------------------------------|

e|------------------------------------------------------------------------------14\-------|
B|------------------12--------------------12------------------10------------------------|
G|--------0---------------------0---------------------0----------------------------------|
D|------------12--------------------12-------------------12----------------------------|
A|---10------------------10---------------------9---------------------9-----------------|
E|-----------------------------------------------------------------------------------------|


e|-------------------3----2---------------------------|
B|-------------------3----3-------------------------|
G|---------0--------0----0------------------------|
D|------------------------x--------------------------|
A|-----3-------3---------3--------------------------|
E|-----------------------------------------------------|

verse similar to intro..

preverse : G D Cadd9 G Am7 Cadd9 (shown below)

e|---3-----2----3---2-----3----2---------3-----3---------------3-----2-----------------|
B|---3-----3----3---3-----3----3---------3-----1---------------3-----3-----------------|
G|---0-----2----2---2-----0----0---------0-----0---------------0-----0-------------------|
D|---0-----0----0---0-----x----x---------0-----2---------------x------x----------------|
A|---2----------------------3----3---------2-----0----0--2-3---3-----3-----------------|
E|---3--------------------------------------3---------------------------------------------|


...2nd verse like intro twice...


prechorus: Dadd4 Cadd9 (shown below)
e|-------5---------------3----2-------|
B|-------3---------------3----3--------|
G|-------0---------------0----0--------|
D|-------4---------------x----x----------|
A|-------5----0--2--3--3----3----------|
E|-------------------------------------------|

chorus: G Dsus4/F# Cadd9 (3)
e|----3-----3-----3----------|
B|----3-----3-----3----------|
G|----0-----2-----0---------| (2)
D|----0-----0-----2----------|
A|----2-----x-----3---------|
E|----3-----2-----------------|

e|----3-----3-----3---2---------2--------------------------------------|
B|----3-----3-----3---3---------3----3h5p3-----0h1p0-------------|
G|----0-----2-----0---0---------0----------------------------2---0----|
D|----0-----0-----x---x---------x----4h5p4-----0h2p0--------------|
A|----2-----x-----3---3---------3---------------------------------------|
E|----3-----2-------------------------------------------------------------|

(strum the first 2 chords)
e|-----------------------------------------------------------------|
B|-----12----10----10--12---10--12--12------------10------|
G|-----0------0-----0----0----0----0----0-------------x--------|
D|-----12----12----12--12--12---12--12------12--12-------|
A|-----10----9------x----x----x----x----x--------x----x----------|
E|--------------------8---8----8----8----8--------8----8----------|


G D Cadd9

G D Cadd9 (2) G Am7 Cadd9
G Dsus4/F# Cadd9

Am7 G/B Cadd9 Dadd4 Cadd9

and then comes the chorus...the progression G Dsus4/F# Cadd9 is played over and over(with Cadd9 being played as x3x032 and x3x035 somewhere)and the last chords before going to the intro G Dsus4/F#...

Outro:
e|-------------------------------------x-----|
B|----3h5p3-----0h1p0------------0-----|
G|----------------------------2--0----0------|
D|----4h5p4-----0h2p0------------0-------|
A|----------------------------3--2----2--------|
E|-------------------------------------3-------|
Last edited by crmrz at Feb 13, 2009,
#3
WOW dude haven't tried it out yet but thats really impressive you did that so quickly.
i'll have to keep your contact close by. it looks really good.

thanks again - check out some of his other (older and maybe not on youtube) stuff
if your interested i could get you a c.d. or something
AWESOME WORK !!!!!!