#1
Hi you all. Im trying to learn the trooper #1 solo, but there is one part in which I stuck because I don´t know how to move my pick. The part is this one:
|----------------------------------------------------------------|
|--------------12-h15-----------12-h15----------12-h15-----------|
|--14---b(16)----------14b(16)----------14b(16)---------14b(16)--|
|----------------------------------------------------------------|
|----------------------------------------------------------------|
|----------------------------------------------------------------|


|-----------------------------------------------------------------|
|--12-h15----------12-h15----------12-h15----------12-h15---------|
|----------14b(16)---------14b(16)---------14b(16)--------14b(16)-|
|-----------------------------------------------------------------|
|-----------------------------------------------------------------|
|-----------------------------------------------------------------|

B5
|---------------------------------------------------------|
|--12-h15----------12-h15----------12-h15---------12-h15--|
|----------14b(16)---------14b(16)--------14b(16)---------|
|---------------------------------------------------------|
|---------------------------------------------------------|
|---------------------------------------------------------|

how do you move your pick?
thank you very very much.
Last edited by Danicastil at Feb 13, 2009,
#2
its kind of an interesting technique. once you get it down it'll totally make sense though.

i'll try and explain it, here goes:

basically, all you do is you start with your first finger on the 12th fret, b string, pick the string, hammer on the 15th fret, then with your ring finger on the 14th fret, pick the g string while bending the string upwards.

im sure you can find some youtube videos of them playing the solo if you need more assistance.

Own an Ibanez RG series guitar? Join the group.


Quote by DkassBTU
fly ass ******s wearin my hat

hahahahaha
#5
i do the opposite of what DepressedIcon says but whatever works really.

Own an Ibanez RG series guitar? Join the group.


Quote by DkassBTU
fly ass ******s wearin my hat

hahahahaha