#2
Intro:
G|---------------------------------------------------------------------------|
D|---------------------------------------------------------------------------| (2)
A|-------------------/333333----------------------------------------------|
E|--111111111---------------33333333----/555555----------------|


Verse:

G|----------------------------------------------------------------|
D|----------------------------------------------------------------|
A|---3----------3--------5----------------------------3----3----|
E|---------5----------------3-5--------1--3---5--------3-------|

G|------------------------------------------------------------------------------------------------|
D|------------------------------------------------------------------------------------------------|
A|---3-3-3-3-3-3-3-3-------------------------3-3-3-3-3-5----------------------------------|
E|-------------------------5-5-5-5-5-5-5-5-------------------3-3-5-5-5-5-5-5-5-5--------|


G|--------------------------------------------------------------------|
D|--------------------------------------------------------------------|
A|---3----------3-----5----------------------------------------------|
E|---------5-------------3-5---3-3-3-3-3-3-3-3-3-3-3-3-3-----|


Chorus:
G|---------------------------------------------------------------------------|
D|---------------------------------------------------------------------------| (2)
A|-------------------/333333----------------------------------------------|
E|--111111111---------------33333333----/555555----------------|

G|------------------------------------------------------------------------------|
D|------------------------------------------------------------------------------|
A|-------------------/333333------------------------------3---------2-------|
E|--111111111-----------------3-3-3-3-4-4-4-4-5-5----5-3-3----3--1|


intro...


2nd verse:
G|----------------------------------------------------------------------------------------------------|
D|----------------------------------------------------------------------------------------------------|
A|---3----------3-----5------------------------------------------------------------------------------|
E|---------5-------------3-5---1-1-1-1-1-1-1-1--3-3-3-3--3-3-3-2-1-1-1-1-1-1-1-1-3----|

chorus...


Bridge:
G|------------------------------------------------------------------------------------------------------|
D|-------------------------------------------------------------------------------------------------------|
A|---------------------------------------------3-3-3-3-3-/5-5-5--2-2-2-2-2-/5-5-5---------------|
E|---5-5-5-5-5-5-5-5-1-1-1-1-1-1-1-1-----------------------------------------------------------|

G|------------------------------------------------------------------------------------------------------|
D|-------------------------------------------------------------------------------------------------------|
A|---------------------------------------------3-3-3-3-3-/5-5-5--2-2-2-2-2-/5-5-5--3-----------|
E|---5-5-5-5-5-5-5-5-1-1-1-1-1-1-1-1-----------------------------------------------------------|

Chorus(2x)...

G|---------------------|
D|---------------------|
A|---------------------|
E|----5----3----1----|
#3
Quote by crmrz
Intro:
G|---------------------------------------------------------------------------|
D|---------------------------------------------------------------------------| (2)
A|-------------------/333333----------------------------------------------|
E|--111111111---------------33333333----/555555----------------|


Verse:

G|----------------------------------------------------------------|
D|----------------------------------------------------------------|
A|---3----------3--------5----------------------------3----3----|
E|---------5----------------3-5--------1--3---5--------3-------|

G|------------------------------------------------------------------------------------------------|
D|------------------------------------------------------------------------------------------------|
A|---3-3-3-3-3-3-3-3-------------------------3-3-3-3-3-5----------------------------------|
E|-------------------------5-5-5-5-5-5-5-5-------------------3-3-5-5-5-5-5-5-5-5--------|


G|--------------------------------------------------------------------|
D|--------------------------------------------------------------------|
A|---3----------3-----5----------------------------------------------|
E|---------5-------------3-5---3-3-3-3-3-3-3-3-3-3-3-3-3-----|


Chorus:
G|---------------------------------------------------------------------------|
D|---------------------------------------------------------------------------| (2)
A|-------------------/333333----------------------------------------------|
E|--111111111---------------33333333----/555555----------------|

G|------------------------------------------------------------------------------|
D|------------------------------------------------------------------------------|
A|-------------------/333333------------------------------3---------2-------|
E|--111111111-----------------3-3-3-3-4-4-4-4-5-5----5-3-3----3--1|


intro...


2nd verse:
G|----------------------------------------------------------------------------------------------------|
D|----------------------------------------------------------------------------------------------------|
A|---3----------3-----5------------------------------------------------------------------------------|
E|---------5-------------3-5---1-1-1-1-1-1-1-1--3-3-3-3--3-3-3-2-1-1-1-1-1-1-1-1-3----|

chorus...


Bridge:
G|------------------------------------------------------------------------------------------------------|
D|-------------------------------------------------------------------------------------------------------|
A|---------------------------------------------3-3-3-3-3-/5-5-5--2-2-2-2-2-/5-5-5---------------|
E|---5-5-5-5-5-5-5-5-1-1-1-1-1-1-1-1-----------------------------------------------------------|

G|------------------------------------------------------------------------------------------------------|
D|-------------------------------------------------------------------------------------------------------|
A|---------------------------------------------3-3-3-3-3-/5-5-5--2-2-2-2-2-/5-5-5--3-----------|
E|---5-5-5-5-5-5-5-5-1-1-1-1-1-1-1-1-----------------------------------------------------------|

Chorus(2x)...

G|---------------------|
D|---------------------|
A|---------------------|
E|----5----3----1----|



YOU ARE A GENIUS.