#1
if you can tell me what song this is, then me love you long time
i have a little information about it...


-it sounds like it came from the 1960s

-at least the first 30 seconds or so are instrumental

-there is a cool riff in the beginning, it is played over a d minor chord (i think its an d minor, not entirely sure)

-I THINK the riff starts like this:
e|---------------
b|---------------
g|-----------2-------
d|-0--0-3--------
a|---------------
e|---------------
but maybe in a different key

-i know that the minor chord has a weird thing going on like this
(palm muted)
e|--------------------
b|-3-3-3-3-3-3-3-3-3--
g|-2-2-3-2-2-2-3-2-2--
d|-0-0-0-0-0-0-0-0-0--
a|--------------------
e|--------------------

-played in i think 4/4 time

-played at about, but not exactly 120 bpm


thats pretty much all i know.... it sounds a little bit dick dale-ish, i would think the song is by him but the guitar didnt have as much reverb.... anyway, please help me!!! i need to know the name of this song, anyone who tells me what it is will get not one, but several e-cookies, an e-hug, and i will be your best friend for the rest of the night

thanks in advance ~
Clocks tick. Your days are numbered in low digits.
You look suspicious - suspect niggas is bitches,
Get chopped up, grade-A meat, somethin' delicious
Last edited by keithmoon15 at Feb 15, 2009,
#2
oh also it kinda has a 'secret agent man' feel to it....


e|--------------------
b|-3-3-3-3-3-3-3-3-3--
g|-2-2-3-2-2-2-3-2-2--
d|-0-0-0-0-0-0-0-0-0--
a|--------------------
e|--------------------

play that at 120 bpm and you can get the feel of it
Clocks tick. Your days are numbered in low digits.
You look suspicious - suspect niggas is bitches,
Get chopped up, grade-A meat, somethin' delicious