#1
hey i need to be able to play this in standard tuning (the most comfortable way possible and still sound right

it is this

d|-------0-----------------0--------------0----------------0-------------|
A|------------------------------------------------------------------------|
F|-----5---5---5------7-----7---7-----9-----9---9-----9-----9---9--|
C|---5-------5------7---7-----7-----9----9----9-----9----9-----9----|
G|-3--------------5---------------7---------------7--------------------|
D|-----------------------------------------------------------------------|


Please!!

and thank you so much
#2
E|-----------------------------------------------------------------------|
B|--------3----------------3--------------------------------------------|
G|-----3---3---3------5-----5---5-----7----77---7-----7----77---7--|
D|---3-------3------5---5-----5-----7----7----7-----7----7-----7----|
A|-1--------------3---------------5---------------5--------------------|
E|-----------------------------------------------------------------------|

I think
www.myspace.com/diectomy
Last edited by DI-ECTOMY at Feb 16, 2009,
#3
I'd play it like this;

E--------5--
B-3--3----
G-3--5--7
D-3--5--7
A-1--3--5
E---------

Edit: Crap
Quote by ravioli123
James, a type of sandwich:

A sandwich that consists of ham, turkey, roast beef, shredded cheese, nacho cheese doritos, and ranch on a toasted bun.
"Hey man lets go get a couple James's for lunch"
#4
um DI-ECTOMY

Is there any other way because that D(3) really throws me off
Last edited by A6stringrythm at Feb 16, 2009,
#5
The only other way I can think of is to just tune your high e down to D and keep everything else standard
www.myspace.com/diectomy