#1
okay I want to record this with my friends tomorrow but I'm stuck on some things.

http://www.youtube.com/watch?v=m_Nz9B1XFio

ok, for the main riff (the intro)

are there two guitars and a bass? Is there a bass playing during the drum fills in between? I can't tell.

ALSO

for one of the guitars can someone tell me if its playing:

  e|------- ------- ------- -------|------- ------- ------- -------|
  B|-------------------------------|-------------------------------|
  G|----------------0---2-------2--|-------------------------------|
  D|------------2------------------|-------------------------------|
  A|0---0-/-4----------------------|0------------------------------|
  E|-------------------------------|-------------------------------| 


or

e||---------------------------------------||
B||---------------------------------------||
G||---------------------------------------||
D||-----------------2---5---4---2---------||
A||-----0---0---4-------------------0-----||
E||---------------------------------------||



The second one sounded right at first because thats what the higher guitar is playing, but I can now hear the first one.

which one is it?
#2
Yes it's two guitars and a bass, yes the bass plays during the drum fills, and it's the second tab.
My Stuff:
PRS SE Soapbar II
ESP LTD EC-50 (Seymour JB & '59)
Peavey Backstage Plus (1x10 35W)
Peavey Classic (2X12 100W)

Yamaha FG-750s circa 1978

Wishlist:
Fishman Rare Earth acoustic pickups
Boss RC-2 or RC-20
#3
Actually no, it's one guitar and a bass and someone plays a piano, I would say Paul but he wrote it so he might've taken the lead, I dunno.
My Stuff:
PRS SE Soapbar II
ESP LTD EC-50 (Seymour JB & '59)
Peavey Backstage Plus (1x10 35W)
Peavey Classic (2X12 100W)

Yamaha FG-750s circa 1978

Wishlist:
Fishman Rare Earth acoustic pickups
Boss RC-2 or RC-20
#4
Or you could try the riff like this, not as far to stretch.
A A
E---------------------------------------------------------------|
b---------5—7b8r7--5---------------5-7b8r7--5-------------------|
g-------6------------------------6------------------------------|
d---7-7--------------7-------7-7--------------7-----------------|
a---------------------------------------------------------------|
E---------------------------------------------------------------|

D A
E---------------------------------------------------------------|
b-----------10—12b13r12--10----------------5-7b8r7--5-----------|
g--------11------------------------------6----------------------|
d--12-12--------------------12-------7-7--------------7---------|
a---------------------------------------------------------------|
E---------------------------------------------------------------|

E A
E---------------------------------------------------------------|
b-----------12—14b15r14--12----------------5-7b8r7--5-----------|
g--------13------------------------------6----------------------|
d--14-14--------------------14-------7-7--------------7---------|
a---------------------------------------------------------------|
E---------------------------------------------------------------|
#5
Ok it didn't line up to well but it played from the bar chord position of the respective chord.
#6
Quote by Ixthyx
Actually no, it's one guitar and a bass and someone plays a piano, I would say Paul but he wrote it so he might've taken the lead, I dunno.



EDIT: wait, your right. one guitar, one bass. but how come the bass is so much quiter in the drum fills in between? and also it really sounds like a guitar playing low, or the bass is playing that first tab I wrote. can't you hear it?

  e|------- ------- ------- -------|------- ------- ------- -------|
  B|-------------------------------|-------------------------------|
  G|----------------0---2-------2--|-------------------------------|
  D|------------2------------------|-------------------------------|
  A|0---0-/-4----------------------|0------------------------------|
  E|-------------------------------|-------------------------------| 
Last edited by mick13 at Feb 18, 2009,