#1
http://www.youtube.com/watch?v=ZYBG5ou87mI

In the chorus. Its obviously a d, then what is it? You can see his hand better at about 2 minutes in. The second chorus. I just can't figure out what he's doing.

And also the tuning of the song. Im guessing its d standard because they're usually drop c live, and this uses normal chords so im guessing they jsut tune up they're e string a little. Right before this song, on that same radio station they did rise above this with the same guitar, and it was in drop c
#2
looks like a C chord to me
Quote by fleajr_1412
You have amazing taste in men.


Are You a PROG-HEAD? I am.
#3
Quote by Dopey_Trout
looks like a C chord to me

Could be. But it looks like hes playing something like

------
------
---5-------------
---3------------
---3------
--------

After the D, and then he moves to a cminor. Not sure though
#5
you're right, it's drop C...and they seem to play something like this...

(strum)

D|----0-----------------------|
A|----3-----------------------|
F|----2-------5----5---------|
C|----0-------3----5---------|
G|----0-------3----3---------|
C|----0-------3----3---------|
#6
Quote by crmrz
you're right, it's drop C...and they seem to play something like this...

(strum)

D|----0-----------------------|
A|----3-----------------------|
F|----2-------5----5---------|
C|----0-------3----5---------|
G|----0-------3----3---------|
C|----0-------3----3---------|


Ok well that would make a C the first chord. Im 99% sure its an open D

It seems like he does the 3335 chord after the D, then switches to another one. Kind of looks like a Cminor, but doesn't sound like it. I tried Cm
#7
if you look closer to what I tabbed , there's a 3355 after the 3335, and he's not using his middle finger..