#1
well im new in this and well im trying to take out the cords or tbs of 2 songs are relly like both are of katy perry they are named Playing House and Brick by Brick please someone help me with this
here are some videos

Playing House

http://www.youtube.com/watch?v=117AYrj-wmk

http://www.youtube.com/watch?v=117AYrj-wmk

Brick By Brick

http://www.youtube.com/watch?v=Ue0SRL6_e8M

http://www.youtube.com/watch?v=TjijIT3soCs&feature=related
#2
Wish I could help ya, but I can't subject my guitar to playing Katy Perry. Search google, I'm sure the chords are somewhere.
#3
belive me ive search everywhere and i dont find anything please help me please i relly like these songs and and dont know how to figure out my slf please help me !
#4
someone !! i need help ! please this quite a hard song to mee and ive tried tofigure out my self but i cant please help me ! i know u can do it please
#5
Playing House

standard with CAPO on4th fret
(chords are to be strummed)


intro
e|---0-----0-----0--------0---0--------0----x------0---x-----0-------------------------|
B|---0-----0-----0--------0---0--------0----x------0---x-----0-------------------------|
G|---7-----4-----0--------0---0--------0----x------0---x-----0-------------------------| (2)
D|---5-----2-----2--------0---0--------0----x------0---x-----2-------------------------|
A|---7-----4-----3--------2---0--------x----x-------x---x-----2------------------------|
E|---------------------------------3-----3/---x---1--1/--x-----0-----------------------|


verse:
e|---0-----0-----0--------0---0--------0----x------0---x-----0-------------------------|
B|---0-----0-----0--------0---0--------0----x------0---x-----0-------------------------|
G|---7-----4-----0--------0---0--------0----x------0---x-----0-------------------------| (2)
D|---5-----2-----2--------0---0--------0----x------0---x-----2-------------------------|
A|---7-----4-----3--------2---0--------x----x-------x---x-----2------------------------|
E|---------------------------------3-----3/---x---1--1/--x-----0-----------------------|


e|--2---7---0-------2---7----0---------2----7----0-------0----------------------------|
B|--3---8---1-------3---8----1---------3----8----1-------0-----------------------------|
G|--4---9---2-------4---9----2---------4----9----2-------0-----------------------------|
D|--4---9---2-------4---9----2---------4----9----2-------2------------------------------|
A|--2---7---0-------2---7----0---------2----7----0--------x----------------------------|
E|-------------------------------------------------------------3--------------|


Chorus:
e|---0-------0---0----------------------0-----0-----0--------------|
B|---0-------0---0----------------------0-----0-----0--------------|
G|---0-------0---0------3times-------0------0----0---------------|
D|---0-------0---0---------------------0------0----0----------------|
A|---5-------9--10---------------------14----9---10----------------|
E|---3-------7--8----------------------12----7----8----------------|


Intro, verse ...


2nd Chorus:
e|---0-------0---0----------------------0-----0-----0--------------|
B|---0-------0---0----------------------0-----0-----0--------------|
G|---0-------0---0------3times-------0------0----0---------------|
D|---0-------0---0---------------------0------0----0----------------|
A|---5-------9--10---------------------14----9---10----------------|
E|---3-------7--8----------------------12----7----8----------------|

e|---0-------0---0----------------------0-----0-----0--------------|
B|---0-------0---0----------------------0-----0-----0--------------|
G|---0-------0---0------3times-------0------0----0----2 times--|
D|---0-------0---0---------------------0------0----0----------------|
A|---5-------9--10---------------------14----9---10----------------|
E|---3-------7--8----------------------12----7----8----------------|


bridge:
e|--0---0---0--------0----0---------0----0-----0----0--------------------------------------|
B|--0---0---0--------0----0---------0----0-----0----0--------------------------------------|
G|--0---0---0--------0----0---------0----0-----0----0-----8times------------------------|
D|--0---0---0--------0----0---------0----0-----0----0-------------------------------------|
A|--3---2---5--------3----2---------5----7-----9----10-------------------------------------|
E|--1---0---3--------1----0---------3----5-----7----8-------------------------------------|


e|---0-------0---0----------------------0-----0-----0--------------|
B|---0-------0---0----------------------0-----0-----0--------------|
G|---0-------0---0------3times-------0------0----0---------------|
D|---0-------0---0---------------------0------0----0----------------| (2)
A|---5-------9--10---------------------14----9---10----------------|
E|---3-------7--8----------------------12----7----8----------------|

e|---0-------0---0----------------------0-----0-----0--------------|
B|---0-------0---0----------------------0-----0-----0--------------|
G|---0-------0---0------3times-------0------0----0----3 times--|
D|---0-------0---0---------------------0------0----0----------------|
A|---5-------9--10---------------------14----9---10----------------|
E|---3-------7--8----------------------12----7----8----------------|

outro:
e|---0-----0-----0--------0---0--------0----x------0---x-----0-------------------------|
B|---0-----0-----0--------0---0--------0----x------0---x-----0-------------------------|
G|---7-----4-----0--------0---0--------0----x------0---x-----0-------------------------|
D|---5-----2-----2--------0---0--------0----x------0---x-----2-------------------------|
A|---7-----4-----3--------2---0--------x----x-------x---x-----2------------------------|
E|---------------------------------3-----3/---x---1--1/--x-----0-----------------------|
Last edited by crmrz at Feb 22, 2009,
#8
ok dont worry mean while i will learn this thANK U UR THE BEST THANK U
#10
I hope you know the chord changes, I'll just tab the chords, the rest is up to you...it's a strange song (at least for me), but that doesn't stop me to help you...well, I really can't tell if she's playing all strings on the first part, but for me she mainly plays the last 4 strings, it sounds better..

Brick By Brick

Standard with CAPO on 1st fret

intro:
e|--------------------------------------|
B|--------------------------------------|
G|---0------0------0------0-----0----|
D|---0------0------0------0-----0----|
A|---12-----9------7-----5-----12---|
E|---10-----7------6-----3-----10---|


Verse:
e|--------------------------------------|
B|--------------------------------------|
G|---0------0------0------0-----0----|
D|---0------0------0------0-----0----| (2)
A|---12-----9------7-----5-----12---|
E|---10-----7------6-----3-----10---|


e|----------------------------| -----0-----|
B|----------------------------| -----0-----|
G|---0----0-----0-----------| (2)-2-----|
D|---0----0-----0-----------| -----2------|
A|---5----9-----7-----------| -----0------|
E|---3----7-----5-----------| -----2-----|


Chorus:

e|----3--------0------0-------------------2-------------------------2------------0-----------------|
B|----3--------3------0-------------------3-----3------3---3------3------3----0-----------------|
G|----0--------2------2-----3times-----4------4-----4----4-----4------4----0-------0--0-------|
D|----0--------0------2-------------------4-----4-----4----4------4-----4-----2------0--0--------|
A|----2----------------0-------------------2-----0-----x----x------2-----0-----2------4--5--------|
E|----3--------------------------------------------------3----4------------------0-------2--3-------|


verse, chorus....


Bridge:
e|------------------------------------------------0----------3--------------|
B|------------------------------------------------0----------3--------------|
G|----0-----0----0-----------------0---0-------2----------0--------------|
D|----0-----0----0-----2times----0---0-------2----------0-------------|
A|----10----5----9-----------------7---5-------0----------2-------------|
E|----8-----3----7------------------5---3------2----------3-------------|


last chorus:

e|----3--------0------0-------------------2---------------------------------2------------0-----------------|
B|----3--------3------0-------------------3-----3------3---3--------------3------3----0-----------------|
G|----0--------2------2-----3times-----4------4---4----4-5times----4------4----0------0--0-------|
D|----0--------0------2-------------------4-----4-----4----4--------------4-----4-----2------0--0--------|
A|----2----------------0-------------------2-----0-----x----x--------------2-----0-----2------4--5--------|
E|----3--------------------------------------------------3----4--------------------------0-------2--3-------|


e|----0-------------------------------|
B|----0-------------------------------|
G|----0-----0----0-------------------|
D|----2-----0----0--------0----------|
A|----2-----4----5--------12---------|
E|----0-----2----3--------10--------|
Last edited by crmrz at Feb 23, 2009,
#11
thank you so much woooow youre amazing relly thnak u thnk uu !!!!!!!!!