#1
Hey people. I'm looking for a decent tab for the solo of 'Level' by The Raconteurs, particularly the harmony part. I've looked but couldn't find any that tabs both guitars.
R.I.P. Lester William Polsfuss June 9, 1915–August 13, 2009
Quote by Moggan13
I'm dissapointed by the lack of penis.

If anyone sigs that, i'll fucking kill them.
Quote by Kensai
I'm a good person and I never meet any pretty girls who loves jesus
#2
the ones up there are right

the harmony part there just playing the same thing, jack one octave up with the whammy


E-15-15-14b15-13-15-13---------------------------------------|
B-----------------------15----------12----------12--12b13b12--|
G-----------------------------12-14----14-12-14---------------|
D-------------------------------------------------------------|
A-------------------------------------------------------------|
E-------------------------------------------------------------|

E------------------------------|
B------------------------------|
G--------12----------12--------|
D--12-15----15-12-15----15-12--|
A------------------------------|
E------------------------------|