#1
Hi, can someone help me? I need the tabs for What it is.. not be mistaken by what it is about men..
thanks
live forever
#2
tuning: standard with CAPO on 1st fret (pluck chords)...these are only chords, I didn't tab the whole thing..


INTRO:
e|--1-----0-----0-----1-----------|
B|--3-----3-----3-----2-----------|
G|--2-----1-----0-----0-----------|(2)
D|----------------------------------|
A|---2----1-----0-----0-----------|
E|----------------------------------|

VERSE:
e|---1-------1-------|
B|---3-------2-------|
G|---2-------0-------|(4)
D|--------------------|
A|---2-------0-------|
E|--------------------|

e|----3-----3-------5------5------------3-------1-----|
B|----4-----4-------6------6--------3---4------4------|
G|----3-----2-------5------4--------2---3------2------|
D|-----------3--------------5--------------------3-------|
A|----3--------------5---------------2---3--------------|
E|---------------------------------------------------------|


(repeat verse) last optional chord of 2nd verse : xx1231

CHORUS?
e|------------------------3---------------------------------------------------|
B|----1-----4-----8-----4------1------4-----8-----5-----------------------|
G|----1-----4-----7-----3------1------4-----7-----3-----------------------|
D|----1-----4-----8-------------1------4-----8-----5-----------------------|
A|-----------------6-----3---------------------6-----3-----------------------|
E|----1-----4--------------------1------4------------------------------------|

verse, chorus..


BRIDGE:
e|---0----------------|
B|---7-----3----------|
G|---6-----3----------| (4)
D|----------3----------|
A|---5-----------------|
E|----------3---------|

chorus, intro
Last edited by crmrz at Feb 24, 2009,
#4
im not sure about this

e|----3-----3-------5------5------------3-------1-----|
B|----4-----4-------6------6--------3---4------4------|
G|----3-----2-------5------4--------2---3------2------|
D|-----------3--------------5--------------------3-------|
A|----3--------------5---------------2---3--------------|
E|---------------------------------------------------------|

:S
live forever
#5
chords are: Cm7 F9 Dm7 G9 Bm7-Cm7 F7

this is how it's played:

e|----3--3-----3----3-----5--5----5--5-----------3-----3----3-----1---------1---------1--|
B|----4--4-----4----4-----6--6----6--6------3---4-----4----4------4---------4---------4--|
G|----3--3-----2----2-----5--5----4--4------2---3-----3----3------2---------2---------2--|
D|--------------3----3---------------5--5------------------------------------3---------3-------|
A|----3--3-----------------5--5---------------2---3-----3-----3------------------------------|
E|-------------------------------------------------------------------------------------------------|
Last edited by crmrz at Mar 13, 2009,