#1
if anybody can work it out or is able to find a tab of this it would be much appreciated.
What are you dense?
Are you retarded or something?
Who the hell do you think I am?
I'm the goddamn Batman.

April 19th, 2011: The Night of the Boob

#3
I threw this together real quick. Its incomplete, but i hope it helps.

Please add on, or change anything you think is wrong
----------------------


* - plam mute


chorus

E|------------------------------------------------
B|------------------------------------------------
G|------------------------------------------------x3
D|------------------------------------------------
A|------7*7*--9*9*--7*7*--9-99--------------------
E|------5*5*--7*7*--5*5*--7-77--------------------

beat 1 2 1 2 1 2 1 1 2

lyrics

1 Shame on you-u, shame on all you do
2 Shame on you-u, shame on we'll take it to you
3 Shame on you-u shame on all you do


repeat for a fourth time, but with an extra part on the end

E|-------------------------------------------------
B|-------------------------------------------------
G|-------------------------------------------------
D|-------------------------------------------------
A|------7*7*--9*9*--7*7*--9-99--11-11--11-11--11-
E|------5*5*--7*7*--5*5*--7-77--9--9---9--9---9--

beat 1 2 1 2 1 2 1 12 1 2 1 2 1

lyrics

4 Shame on you-u, shame on we'll take it to you when we catch you


bass line at 1:15, right played after first chorus

E|-----------------
B|-----------------
G|-----------------
D|-----------------
A|-----------------
E|-0-7-5-3-3-1-----


guitar played after bass line, during and after verse/before chorus. also played at the end of the song(repeated about 4 or 5 times) starting at 2:45.

E|-------------------------------
B|-------------------------------
G|-------------------------------
D|-------------------------------
A|-------------------------------
E|--5-5-5--3-3-3--1-1-1--0-0-0---
#4
i dont think thats exsactly right here was i got tuned half step down
opening and verse:
E-1---3-----1----3-------------
B-3---5-----3----5--------------
G-2---4-----4----6-------------
D-----------------------3----5---- this is the opening and verse
A-----------------------3----5----
E-----------------------1----3-----


heres the part i dont get after the verse but i play
E-1--3--1--3--5--3--5--3--1
B-3--5--3--5--7--5--7--5--3
G-2--4--4--4--6--4--6--4--2
D
A
E

chors is dead on
E
B
G--7-7--------10-10--12------
D--7-7---8-8-10 10--12----------
A--5-5---8-8--8--8---10--------
E---------6-6-----------------


play that for the chores

thats some of it im pretty sure its not 100% theres some more to it for sure its a tricky song someone please help out