#1
Hey guys. I've been looking for this song for a while, and it always leads to 0 results. You guys can hear it here. Thanks for the help!
For real.
Last edited by MUUFasaurus at Feb 24, 2009,
#2
I'll give you the structure of the song, the arpeggio and the chords...

INTRO:
e|-----------3-------------3-----------3---------------3--|
B|-------0------0------0-----0-----0-----0-------0------|
G|----5-------------5------------5-------------5----------|
D|-----------------------------------------------------------|
A|-----------------------------------------------------------|
E|------------------------------------------------------------|


VERSE: C Em F G
e|-------------3---------------3--------------0-------------0--------------|
B|--0------5--------------5--------------6------6------3------------------|
G|-----5-----------5--4----------4--5--------------0----------------------| (repeat)
D|---------------------------------------------------------------------------|
A|---------------------------------------------------------------------------|
E|---------------------------------------------------------------------------|


Am Em F G
e|--------------0--------------0------------1------------------3-----------|
B|--0------1--------------0-------------1----------------3----------------|
G|------2----------2---0---------0--2----------2---4---------------------|
D|---------------------------------------------------------------------------|
A|---------------------------------------------------------------------------|
E|---------------------------------------------------------------------------|
Last edited by crmrz at Feb 23, 2009,
#4
Would anyone wanna try to get :5 to :17 tabbed down? As in, the second (lead?) guitar? I'm sorry I'm an idiot when it comes to the notes on the guitar neck..
For real.
#5
the lead plays the same thing the other guitar is playing (the arpeggio verse)
Last edited by crmrz at Feb 25, 2009,