#1
This is the solo of Dream Theater's In The Presence Of Enemies Part 1
[tab]
Riff 8 (Solo)
E|------------------------------------------------|
B|-10----8h10----12b13------------------------5h6-|
G|----------------------12----10-12----(12)\7-----|
D|------------------------------------------------|
A|------------------------------------------------|
E|------------------------------------------------|
|--------------------|>>>Is this bit correct? Sounds wierd on my guitar
E|-------------------------------------------------------------------------|
B|-8-5---6--5--6p5------------10----8h10----12b13------------------------5-|
G|-----------------7----(7)\-----------------------12----12b14----(12)\7---|
D|-------------------------------------------------------------------------|
A|-------------------------------------------------------------------------|
E|-------------------------------------------------------------------------|
[/tab]
#3
For the most part it is. Your just missing some essential pull-offs. Heres the beginning of it.

----------------------------------------------------------------------------------
-8/10~----8h10~------12b13-----------------------------------------------
--------------------------------------10h12~-----10--12~---(12)\---------
----------------------------------------------------------------------------------
----------------------------------------------------------------------------------
----------------------------------------------------------------------------------

----------------------------------------------------------------------------------
----------------------------------------------------------------------------------
-------9-10~---12--9----10----9h10p9-------------------------------------
-/12-------------------------------------------12~-------(12)\----------------
----------------------------------------------------------------------------------
----------------------------------------------------------------------------------

----------------------------------------------------------------------------------
-8/10~---8h10~---12b13---------------------------------------------------
---------------------------------10h12---12/14--12~---(12)\--------------
----------------------------------------------------------------------------------
----------------------------------------------------------------------------------
----------------------------------------------------------------------------------

----------------------------------------------------------------------------------
----------------------------------------------------------------------------------
-------9-10~---12--9~--10--9h10p9---------------------------------------
--/12---------------------------------------12~-----------10------------------
----------------------------------------------------10h12------11\10----------
----------------------------------------------------------------------------------

----------------------------------------------------------------------------------
----------------------------------------------------------------------------------
----------------------------------------------------------------------------------
----------------------------------------------------------------------------------
-8b(1/4)~----------------------------------------------------------------------
--------------10-----(10)\------------------------------------------------------