#1
Hey again. I just need one more song tabbed out, its by an anti-folk musician I saw live recently. I uploaded the song onto youtube here. I'm sorry about the quality of the song, and the simplicity, as it's just powerchords, but I'm clueless. Thank you so much!
For real.
#3
this song is made up of 2 parts: the first one you'll hear it throughout the song, and the second one is played when he starts singing "Peter.."


e|----2------5-----7---------10--------------2---------------------2-----------------|
B|----2------5-----7---------10--------------2---------------4----2-----------------|
G|----2------6-----8---------11--------------2---------------4----2-----------------|(repeat)
D|----4------7-----9----11--12---11--9----4---------------4----4-----------------|
A|----4------7-----9----11--12---11--9----4---------------2----4-----------------|
E|----2------5-----7----9----10---9---7----2---------------------2-----------------|

Peter...
e|------------------------------------|
B|------------------------------------|
G|---6------7------------9----------| (2)
D|---6------7-----7------9---------|
A|---4------5-----7------7----------|
E|-----------------5-----------------|