#1
Hi everybody.

It seems that i always come up with undefinable chords, however they sound good, that's the most important. Here a couple of chords i don't know how to name:


e|----6---5---6----3----5----1----0----0----0--|
B|---5---5---5----3----3----2----6----6----2---|
G|---7---5---5----3----3----2----7----7----3---|
D|---7---0---0----0----0----2----0----5----2---|
A|---5---0---0----0----0----0--------------------|
E|---------------------------------------------------|

And a few more:

e|----0---------------------0---0------|
B|---7----12---7----7---4---3-------|
G|---8----11---7----7---4---4-------|
D|---9----12---7----7---4---4-------|
A|---x----12---10--7---2---2--------|
E|---7----------------------------------|

Help would be appreciated, i know it's a lot and that the open strings screw up
one and other, but i really want to know the names.

THX!
#3
I'll give you a website. http://www.chordbook.com/guitarchords.php

It will help for this and anything else basically.
Quote by Minkaro
Schizophrenia rap?

*beatboxes*

I have schizophrenia, I talk to myself,
People startin' to doubt my mental health,
Maybe someday I'll get the help I need,
But till then don't be blamin' mah weed.

*scratches*
#4
Chords can function a lot of different ways, so they might have a couple of different names.
Here's what I got;
Dsus2(b13)
Am(11)
Am(b9 11)
Gm/A
BbMaj7/A
A (b13)
Dm (9)
G7 (13)
Bbm/E
B (11)
Bm7/A
D/G
D/E
B (11)
Bm (11)
There's my way and the wrong way.
#8
There's no such thing as an "undefinable" chord - just look at the notes they contain, decide where the tonal centre is and work the rest out from there.
Actually called Mark!

Quote by TNfootballfan62
People with a duck for their avatar always give good advice.

...it's a seagull

Quote by Dave_Mc
i wanna see a clip of a recto buying some groceries.


stuffmycatswatchontv.tumblr.com
#9
Quote by steven seagull
decide where the tonal centre is and work the rest out from there.


How do i do that?