#1
I really would like to have the chords for this song. I LOVE it! Please could someone figure it out for me?! Thanks!
#2
Standard with CAPO on 1st fret

Fadd9: x33011
Fmaj7: x33210

you can play a regular F chord instead of these

this is the intro (strum )
e|----0----------1--------0-------0------0----0------|
B|----1----------1--------1-------1------1----1------|
G|----0----------0--------0------0h2----0----2------|
D|----2----------2h3-----2------3-------3----3-----|
A|----3----------3--------3------3-------3----3------|
E|-----------------------------------------------------|


Intro: C Fadd9 C Fmaj7

Verse: C Fadd9 ( 4) Am-G Fadd9


Chorus: C Fadd9 C Fmaj7
e|----0-----3----0---------------0------0---0--------|
B|----1-----1----1---------------1------1---1--------|
G|----0-----2----0---------------0h2---0---2--------|
D|----0h2--3----2---------------3------3---3--------|
A|----3-----------3---------------3------3---3--------|
E|-------------------------------------------------------|


verse, chorus

Bridge: G C G Am-F G Am F Am F G

chorus....