#1
Could someone convert this part of Jump to sheet music?
Sorry the tabs messed up.

Intro
Moderately Q=129
4/4
Gtr I
Q E E E E E E E E E E E E E E
||-------------------|---------------------|
||o----15-----17-----|-13-----13---15---15-|
||-----16-----17-----|-14-----14---16---16-|
||-----17-----17-----|-15-----15---17---17-|
||o------------------|---------------------|
||-------------------|---------------------|
|-Rhy Fig 1

+Q E E E E E E +E Q E +H 3x
|----------------------|----------------------||
|-(15)--17-----13---10-|-(10)--8---8--(8)----o||
|-(16)--17-----14---10-|-(10)--9---7--(7)-----||
|-(17)--17-----15---10-|-(10)-10--10-(10)-----||
|----------------------|---------------------o||
|----------------------|----------------------||
end Rhy Fig 1-|

Q E E E E E E E E E E E E Q
|----20-----20-----|-20-----20-----15--|
|----22-----22-----|-22-----22-----17--|
|----22-----22-----|-22-----22-----17--|
|------------------|-------------------|
|------------------|-------------------|
|------------------|-------------------|


+E E E E E E E E +E Q E +H
|-(15)------------------|---------------------||
|-(17)---13-----10---10-|-(10)--8---8--(8)----||
|-(17)---14-----10---10-|-(10)--9---7--(7)----||
|--------15-----10---10-|-(10)-10--10-(10)----||
|-----------------------|---------------------||
|-----------------------|---------------------||
SteamMaster wrote:

Toker420 wrote:
What is on that dudes face?!


its called pure awesome


Quote by Zolom
Get off my lawn ya young whippersnapper! Confounded *descends into gibberish*
#2
Download Powertab (or Guitar Pro). Input the tablature as it is. And then read the regular notation right above it. This is how I regularly notate things.
Check out Hear the Indie for music reviews, interviews, and more.

Want a review? Send me a PM or email through the contact form on my site.