#1
I really like the main melody to Russian Privjet by Basshunter. Any kind of tab will do - guitarpro, power tab, whatever. And the rhythm doesn't have to be there, as long as I have the notes I should be able to figure it out.

Its starts at about :45 in this video:
http://www.youtube.com/watch?v=Fz5CDxqjPko

Thanks in advance!
The name's Austin
Quote by Leo Tolstoy
Music is the shorthand of emotion.
Quote by Friedrich Nietzsche
Without music life would be a mistake.
#2
Bump?
The name's Austin
Quote by Leo Tolstoy
Music is the shorthand of emotion.
Quote by Friedrich Nietzsche
Without music life would be a mistake.
#3
e|-------------------------------10-10---11-11---13-11-11------11-------------------------|
B|---------------------------------------------------------------------------13-13-13---13--13-|
G|------------------12-12-------------------------------------------------------------------------|
D|--10-10----10---------------------------------------------------------------------------------|
A|--------------------------------------------------------------------------------------------------|
E|--------------------------------------------------------------------------------------------------|

e|----------------------------------------------------------------------------------------------------------|
B|--11-----------------------------------------11---------------------------------------------------------|
G|-------12-12-----12-12-12-----13-12-------10-10----10------------10--12---------------------|
D|---------------------------------------------------------------------12-13------------13-12---10-10--|
A|----------------------------------------------------------------------------------------------------------|
E|----------------------------------------------------------------------------------------------------------|


e|-----------------------------------------------------------------------13--------------|
B|--13-13-13----15-15-16----13-13-----13-13-13---15-15------16-16-----|
G|--------------------------------------------------------------------------------------|
D|--------------------------------------------------------------------------------------|
A|--------------------------------------------------------------------------------------|
E|--------------------------------------------------------------------------------------|

e|--------15-15-15--------------------------13-13---13----------13-------------------------------|
B|---16---------------16-16---16-15-16-----------------15-16-------------16-15-13-13-------|
G|----------------------------------------------------------------------------15------------------------|
D|-------------------------------------------------------------------------------------------------------|
A|-------------------------------------------------------------------------------------------------------|
E|-------------------------------------------------------------------------------------------------------|