#1
This is incredibly easy song. First song I've ever learned.
I know the whole song, but I could never get the Chorus, down.
The strumming pattern. I could never figure out.

Can anyone help me on it?

"Emily" by FFTL

Chorus Both Guitars strummings off a little close enough though
e|-----0---0--0--0---0-------0--0--0----0---0--0-------0-0-------------------|
B|-----0-0-0--0--0---0-------0--0--0----0---0--0-0-----0-0-------------------|
G|-----0-0-0--0--0---0-------0--0--0--0-0---0--0-0-----0-0-------------------|
D|--9--9-7-7-12-12-12-12-12-12-12-12--9-9-7-7--5-5-5-5-5-5-------------------|
A|--7--0-5-0-10-10-10-10-10-10-10-10--7-0-5-0--3-3-3-3-3-3-------------------|
E|--0--0---0--------------------------0-0---0--------------------------------|
Play the chorus twice and after all that do this both guitars
e|--------------------------------------------------------------------------|
B|--0---0---0---------------------------------------------------------------|
G|--0-0-0-0-0---------------------------------------------------------------|
D|--5-5-5-5-4---------------------------------------------------------------|
A|--3-3-3-3-5---------------------------------------------------------------|
#2
Hi If you still need the strumming just let me know and I'll post it in my blog in my profile also there are other strumming patterns in my blog if you need them so check them out.