#1
please can someone check out my request for the song i'm not afraid of tomorrow by forever in terror. i really wanna learn it.
#2
I'll tab it tomorrow if I can as a thank you for getting me into this band
Quote by Carmel
You are a redeeming feature for the UG Swedish population.


All-riiight.
#3
lmao ur welcome. they're amazing they live by me. and just godly they're only like 18 19 and they're signed and ****. if u need help i can. i've been trying myself
#4
fuuuuuuuuu- it's a 7 string, I'll tab it for drop b if that's ok, I don't have a 7 string
Quote by Carmel
You are a redeeming feature for the UG Swedish population.


All-riiight.
#5
ya man. they're amazing tho. ya its all good. i believe they play in standard or drop D tho. but it wont matter
#6
nah, it's def drop b

the only thing I'm gonna have problems with is the solo
Quote by Carmel
You are a redeeming feature for the UG Swedish population.


All-riiight.
#8
I'm really busy with school right now but I'll give you what I've got and tab the rest later

It's "I'm not afraid of tomorrow"
C#||-----------------------------------------
G#||-----------------------------------------
E ||--14-14-14-14-14-14-14-14-15-14-14-12-12-
B ||--12-12-12-12-12-12-12-12-12-12-12-12-12-
F#||-----------------------------------------
B ||-----------------------------------------

---------------------------------------------
---------------------------------------------
--10-10-10-10-10-10-10-------------------10--
---8--8--8--8--8--8--8--------------------8--
-----------------------0--0--0--0--0--0-----0
-----------------------0--0--0--0--0--0-----0

---------------------------------------------
---------------------------------------------
---------------------------------------------
--10-10-10-10-10-10-10-10-10-10-10-10-10-10-1
---8--8--8--8--8--8--8--8--8--8--8--8--8--8--
---8--8--8--8--8--8--8--8--8--8--8--8--8--8--

----------------------------------------|
----------------------------------------|
----------------------------------------|
--7-7-7-7-------7-7-7-7-------7s-10s--7-|
--5-5-5-5-0--0--5-5-5-5-0--0--5s--8s--5-|
--5-5-5-5-0--0--5-5-5-5-0--0--5s--8s--5-|

---------------------------------------------
---------------------------------------------
--14-14-14-14-14-14-14-14-15-14-14-12-12-14--
--12-12-12-12-12-12-12-12-12-12-12-12-12-12--
--------------------------------------------0
--------------------------------------------0

---------------------------------------------
---------------------------------------------
--10-10-10-10-10-10-10-------------------10--
---8--8--8--8--8--8--8--------------------8--
-----------------------0--0--0--0--0--0-----0
-----------------------0--0--0--0--0--0-----0

---------------------------------------------
---------------------------------------------
---------------------------------------------
--10-10-10-10-10-10-10-10-10-10-10-10-10-10-1
---8--8--8--8--8--8--8--8--8--8--8--8--8--8--
---8--8--8--8--8--8--8--8--8--8--8--8--8--8--

--------------------------------------------|
--------------------------------------------|
--------------------------------------------|
--7-7-7-7-------7-7-7--7--7--7--7--7--7--7--|
--5-5-5-5-0--0--5-5-0--0--0--0--0--0--0--0--|
--5-5-5-5-0--0--5-5-0--0--0--0--0--0--0--0--|

------------------------------------|
------------------------------------|
------------------------------------|
------------------------------------|
------12---8---7-------12---8---7---|
--0-0----0---0---0-0-0----0---0---0-|

------------------------------------|
------------------------------------|
------------------------------------|
------------------------------------|
------12---8---7-------12---8---7---|
--8-8----8---8---8-8-8----8---8---8-|

------------------------------------|
------------------------------------|
------------------------------------|
------------------------------------|
------12---8---7-------12---8---7---|
--7-7----7---7---7-7-7----7---7---7-|

-----------------------------------------||
-----------------------------------------||
-----------------------------------------||
-----------------------------------------||
------12---8---7---------12----8----7----||
--8-8----8---8---8-10-10----10---10---10-||
Quote by Carmel
You are a redeeming feature for the UG Swedish population.


All-riiight.