#1
This the solo from second heartbeat by avenged sevenfold. drop d tuning. just wanted to know the scale or scales SYN is using

Second Heartbeat

couldnt paste it in, it got messed up. this is accurate for the most part.
Quote by bartdevil_metal
I will make it my personal mission to track you down and floss your teeth with a wound g string.

Quote by Zaphikh
Oh yes, the communist.

^Me
Quote by Al4Project
Yes,
and they shall be forever known as the person i cannot escape in the pit

^Me



Valveking Wiki
#2

>solo

E------------------------10-------------------13-13h15-13-------------------------------|
B-13------------------------11----------13-16-------------16-13-13h15-13-11-13----------|
G----12~~~------------13-------10~~--15----------------------------------------12b1/4~~-|
D------------13-12-13-------------------------------------------------------------------|
A---------------------------------------------------------------------------------------|
D---------------------------------------------------------------------------------------|

E-------------------------------------------------------10-------------------------13-|
B-------------------------------13-------------------------11-------------13-15h16----|
G----------------------------------12----------------12-------10~~--12h13-------------|
D-12h13-12----------------------------13-12-13-12-13----------------------------------|
A----------13h15-13s\-13h14h15--------------------------------------------------------|
D-------------------------------------------------------------------------------------|

E-13h15-13-------15s/18-16-15---------------------------------------|
B----------16-13--------------16-13~~--13h15h16-15b16~~--16p15------|
G--------------------------------------------------------------17s\-|
D-------------------------------------------------------------------|
A-------------------------------------------------------------------|
D-------------------------------------------------------------------|

E-10h11p13----------10h11h13----------------11~~--|
B----------10h11h13----------10h11h13-----11------|
G---------------------------------------12--------|
D-------------------------------------13----------|
A-------------------------------------------------|
D-------------------------------------------------|

E----------------------------------------------10h11h13-11-----|
B--------------------------------------------------------------|
G----------10h12h13----------10h12h13----------------------10~-|
D-10h12h13----------10h12h13----------10h12h13-----------------|
A--------------------------------------------------------------|
D--------------------------------------------------------------|

E-18p16p15------------------------------------------------------------------------------|
B----------18p16p15-16p15p13------------------------------------------------------------|
G----------------------------17p15p13-15p13p12------------------------------------------|
D----------------------------------------------17p15p13-15p13p12------------------------|
A----------------------------------------------------------------17p15p13-15p13p12-15~~-|
D---------------------------------------------------------------------------------------|

E-------------------10-11-|
B----------11-------------|
G-------------12-13-------|
D-10-12-13----------------|
A-------------------------|
D-------------------------|

E-------15h20p15h20p15-| x4
B----16----------------|
G-17-------------------|
D----------------------|
A----------------------|
D----------------------|

E-22-22-22-18-22-22-22-18-22-22-22-18-22-22-22-18-22-22-22-22b24-|
B----------------------------------------------------------------|
G----------------------------------------------------------------|
D----------------------------------------------------------------|
A----------------------------------------------------------------|
D----------------------------------------------------------------|

E----------------------------------------------15h16h18-18s/20~~~~-|
B-------------------------------------13h15h16---------------------|
G----------10h12h13----------12h13h15------------------------------|
D-10h12h13----------12h13h15---------------------------------------|
A------------------------------------------------------------------|
D------------------------------------------------------------------|




G D C# Fbb Ab B

Ab B C# D Fbb G

Those are the notes I was able to pick out from the first part. (I think thats correct)

(I'm HORRIBLE at this, but you can't get better unless you practice...)

I think that may help people a bit... <.< (I posted the solo)


When you paste tabs, use code tags. It keeps it "in shape".

Although I'd like to know the font used. (11 Verdanna if I remember?)




Please add me if as a friend I helped! (I like to think I'm a friendly person)
Last edited by Invokke_Havokk at Mar 1, 2009,
#3
thanks for putting in the solo. any idea of the scale?
Quote by bartdevil_metal
I will make it my personal mission to track you down and floss your teeth with a wound g string.

Quote by Zaphikh
Oh yes, the communist.

^Me
Quote by Al4Project
Yes,
and they shall be forever known as the person i cannot escape in the pit

^Me



Valveking Wiki
#5
Like I said, I'm relatively bad at this... I don't even think I got the correct notes out of it...

Also do you mean Key? (Like C major)

EDIT:

I used Fbb because I was working in my head and forgot to 'convert' it to D#....I found F, went down two (by adding flats in my head, lmao)




Please add me if as a friend I helped! (I like to think I'm a friendly person)
Last edited by Invokke_Havokk at Mar 1, 2009,
#6
Yeah key and or scale. I just want to know how SYN came about to write this. cuz i luv the sound and notes he picked.
Quote by bartdevil_metal
I will make it my personal mission to track you down and floss your teeth with a wound g string.

Quote by Zaphikh
Oh yes, the communist.

^Me
Quote by Al4Project
Yes,
and they shall be forever known as the person i cannot escape in the pit

^Me



Valveking Wiki
#7
lol its just C Natural Minor 6 posts and no one could say that? it wouldve helped more if you linked to the actual song rather than post a tab, its easier to hear what scale it is than to look at it on paper...and also you need the backing chords to determine the tonic so that tab isnt enough info
#8
Quote by Morgray
lol its just C Natural Minor 6 posts and no one could say that? it wouldve helped more if you linked to the actual song rather than post a tab, its easier to hear what scale it is than to look at it on paper...and also you need the backing chords to determine the tonic so that tab isnt enough info


This is also my first and failed attempt.

At least I tried...




Please add me if as a friend I helped! (I like to think I'm a friendly person)
#9
Quote by Morgray
lol its just C Natural Minor 6 posts and no one could say that? it wouldve helped more if you linked to the actual song rather than post a tab, its easier to hear what scale it is than to look at it on paper...and also you need the backing chords to determine the tonic so that tab isnt enough info


didn't know how to sorry. and thanks for the help guys

although for c natural minor wouldnt it need to be b flat?
nvm there is b flat lol my bad
Quote by bartdevil_metal
I will make it my personal mission to track you down and floss your teeth with a wound g string.

Quote by Zaphikh
Oh yes, the communist.

^Me
Quote by Al4Project
Yes,
and they shall be forever known as the person i cannot escape in the pit

^Me



Valveking Wiki
Last edited by synystagates at Mar 1, 2009,