#1
Does anyone know how to play the rythym (sp) for the piano in our house - madness and does anyone know the chords for the intro.

Cheers
#2
he's just playing a bass line on the piano...so transposed to a bass guitar..

G|--5-5---5-5----------------------------------------------------------------------------------------|
D|-----------------8---7----5-5---5-5---------------------------------------------5-5--6-6--8-8-|
A|------------------------------------------8---7----5-5---5-5----5----7---8-8-------------------|
E|-----------------------------------------------------------------------------------------------------|

if you want chords (which I understand he doesn't play on the intro):

C Gm Dm Fm

The Fm chord can be replaced by these intervals:
e|--------------------------------------|
B|--------------------------------------|
G|-1----3-----5-----7----------------|
D|--------------------------------------|
A|---------------------------------------|
E|-1----3-----4-----6------------------|