#1
I think this is a great fingerpicking song that I would love to learn. Unfortunately I can't figure it out! I could figure a few things out which I thought sounded like it.. but when I listened to it again it wasn't very close.

Here are youtube links:
No time to sleep- live

No Time to sleep

Thanks!
#2
this is the intro only, play it twice... (capo on 5th fret)

e|---------------------------------------------------------------------------------------|
B|---------------1-------------------------------------------------1--------------------|
G|---------------------2---------2------------0--------------------------0----------0-|
D|-----2-----------2---------2------------0----------0h2-----------2----------2-----|
A|-0--------0-------------0--------0h2-----------3---------3--------------3---------|
E|---------------------------------------------------------------------------------------|

e|-----------------------------------------------------------|
B|------------------------------0---------------------------|
G|------------0-----------------------0----------0---------|
D|--------0------------0----------0-----------0------------|
A|-3p2------------------------------------------------------|
E|-----------------3-------3--------------3-----------------|

e|---------------------------------------------------------------------------|
B|----------------------------------0----------------------------------------|
G|---------------0----------------------0----------0--------------0--------|
D|------------0----------2-----------2----------2-------------2-----------|
A|--------------------------------------------------------0h2---------------|
E|----3p2----------0--------0--------------0------------------------------|
Last edited by crmrz at Mar 7, 2009,