#1
I am Having a bit of trouble with this song. My ear is telling me that this song is played: (intro Riff)
|------------|----------------------------|
|-------------|----------------------------|
|-------------|----------------------------|
|-------------|------------------------7--|
|-------------|------------------------5--|
|-------12\--|-0-0-0-0-0-0-0-0-0----|

My friend's ear is hearing:

|------------|----------------------------|
|-------------|----------------------------|
|-------------|----------------------------|
|-------------|------------------------8--|
|-------------|------------------------6--|
|-------12\--|-0-0-0-0-0-0-0-0-0----|

Which do you hear?