#1
does anyone has watched the movie Watchmen ? what im looking for is if someone with more skills than i , could tab the music "i love you mom" from tyler bates , its a very nice sound slowly and shouldnt be too hard to tab...just need some help please would be deeply appreciated =)
#2
nope havent seen it...all anyone tells me about when i ask is that theres an awkward sex scenen and a big blue penis....soooo idk if i should see it now lol


gear:
line 6 spider valve 212
ibanez RG5EX1
vinci VE5PK
#3
Here's what I got (at least, the first 45 seconds):

e:------4--0--------------------4--0-------------0--[12]-------[19]------
B:-------------------------------------------------------[12]-------[19]-
G:------------2-2-2/4-----------------2-2-2/4-1--------------------------
D:-----------------------------------------------------------------------
A:-----------------------------------------------------------------------
E:-0~---------------------0~------------------------------------------0--

e:-4--0--4/5-4-0-7-7/9--5--4-------4--0---------------0--
B:-------------------------------------------------------
D:---------------------------------------2-2-2h4p2-1-----
G:-------------------------------------------------------
A:-------------------------------------------------------
E:----------------------------0~-------------------------


then the chords kicked in and I gave up. If someone wants to use this and complete the tab, feel free to.