#1
I have a feeling that almost every Ace Of Spades tab i can find online is not 100% correct.

Especially this part:

FILL 1:
|----10---10--------------|----10---10--------------|
|----10^--10--8-----8-----|----10^--10--8-----------|
|----------------9--------|----------------9--------|
|-------------------------|-------------------------|
|-------------------------|-------------------------|
|-------------------------|-------------------------|


I am not sure, but it must be more like this:


|----10\9---------------|----10\9----------------|
|----10\9---7--9--7--|----10\9---7-----------|
|-------------------------|---------------8--------|
|-------------------------|-------------------------|
|-------------------------|-------------------------|
|-------------------------|-------------------------|

there is definitely a short slide or a bend. its not the same fret/chord twice.
Are there any opinions on this?
If something is nothing it must not be something in any possible way
Last edited by busa54 at Mar 11, 2009,
#4
Quote by CrimsonBizzare
What part is this?


It begins after 20 seconds and later in the song too.
If something is nothing it must not be something in any possible way
#5
What about:

|-------------------------|-------------------------|
|--14^--14----12--14--12--|--14^--14------12--------|
|--14^--14----12--14--12--|--14^--14------12--------|
|-------------------------|-------------------14----|
|-------------------------|-------------------------|
|-------------------------|-------------------------|
#6
Quote by CrimsonBizzare
What about:

|--------------
|--14^--14--
|--14^--14--
|---------------
|---------------
|---------------


I dont like this part. They dont play the same note twice.
If something is nothing it must not be something in any possible way